Metal

Gitaarliedjes, tabs & akkoorden (chords) Metal - boek

Songtype: Tab

arrow&v

Markeer als favoriet

Favoriet

Gemarkeerd als favoriet

Capo:

0

boek

boek

Song
Album
Categorie

Metal

Downloads
1256
Niveau
1
Geplaatst door
benn..
ProTabs-promo.jpg

E------------------------------------------------------------
B------------------------------------------------------------
G------------------------------------------------------------
D-----2--2-----------2--3--1--2-------------------------
A-----0--0-------5------------------3--2--1-------------
E-------------0--3-------------------------------------------


E------------------------------------------------------------
B-------------------------1---3--1----------------------
G---------------------2---0---2--0---2------------------
D-----2--2------------2------------- 2--1--0---------
A---- 0--0------5----------------------------------3-----
E------------0--3-------------------------------------------

ProTabs promo.jpg

Onbeperkt en gratis toegang tot alle 25.000
Tabs & Chords en direct meespelen met

Artiest Liedje

...

Gitaarakkoorden boek - Metal

Dankzij de bladmuziek op deze pagina wordt het een stuk makkelijker om met de gitaar mee te spelen met Metal van boek De ProTabs van Gitaartabs worden door onze professionele gitaardocenten samengesteld. De tabs en chords zijn door leden zelf geplaatst. Deze undefined van boek met Metal is voor je geschreven door benn..

Tabs & Chords van boek - Metal

Bij de ProTabs delen we niet alleen de tablatuur maar ook de speelwijze van Metal Met een beetje gitaar ervaring moet je dit gitaarliedje zeker kunnen spelen, maar als het niet lukt zijn we er altijd om je te helpen. Door een gratis account aan te maken krijg je niet alleen toegang tot deze tab ,akkoorden & tabs van Metal maar kun je ook onbeperkt meespelen met een van de meer dan 25.000 andere tabs & chords in onze database.

Plaats opmerking

Beoordeel deze song

Rate UsDon’t love itNot greatGoodGreatLove itRate Us

Bedankt voor je beoordeling!