Delfonic

Gitaarliedjes, tabs & akkoorden (chords) Delfonic - broken glass heroes

Songtype: Tab

arrow&v

Markeer als favoriet

Favoriet

Gemarkeerd als favoriet

Capo:

0

broken glass heroes

broken glass heroes

Song
Album
Categorie

Delfonic

Downloads
41
Niveau
1
Geplaatst door
dare-devil
ProTabs-promo.jpg

Broken Glass Heroes - Delfonic (Intro).

(centerparcs reclame 2012 - alleen boeren houden van regen).



e----------------------------12-9----------------------------------10-10--10-10--------------
B----------11-9----------14------------------------------------------------------------------
G-------9------9------------------9h11-9-9--9-9-9-9-9-9--11-11-11----------------------------
D---8/9----------9/11-11---------------------------------------------------------------------
A--------------------------------------------------------------------------------------------
E--------------------------------------------------------------------------------------------


e-------------------------------12-9-------------------------------10-10--10-10/11-----------
B---------------------------14---------------------------------------------------------------
G-------9--9-9-9-9-9--11-11----------9h11-9-9--9-9-9-9-9-9--11-11----------------------------
D---8/9--------------------------------------------------------------------------------------
A--------------------------------------------------------------------------------------------
E--------------------------------------------------------------------------------------------



Zelf geef ik de voorkeur aan deze versie, vind ik in principe veel mooier en iets agressiever klinken


e------------------------14----12-9----------------------------------10-10--10-10------------
B---------9-11-9---------14-------------------------------11-11------10-10--10-10------------
G-----9---------9-----11-----------9/11\9-9--9-9-9-9-9-9--11-11------------------------------
D---8/9----------9/11-11-----------9/11\9-9--9-9-9-9-9-9-------------------------------------
A--------------------------------------------------------------------------------------------
E--------------------------------------------------------------------------------------------


e---------------------------14---12-9--------------------------------10-10--10-10/11----------
B---------------------------14--------9/11\9-9--9-9-9-9-9-9--11-11---10-10--10-10/11----------
G-----9--9-9-9-9-9-9--11-11-----------9/11\9-9--9-9-9-9-9-9--11-11----------------------------
D---8/9--9-9-9-9-9-9--11-11-------------------------------------------------------------------
A---------------------------------------------------------------------------------------------
E---------------------------------------------------------------------------------------------


Songtekst:

I do what I’m doing

Not as I’m told

Don’t wanna go hearing

Just wanna grow old,

Just wanna grow old

Whoa, old

I think that’s it’s worthwhile

Maybe even great

I should be going

I’m gonna get her

I’m gonna get her

La la la la la la la la la la

La la la la la la la la la la

La la la la la la la la la la

La la la la la la la la la la

La la la la la la la la la la

La la la la la la la la la la

I still wear the same …

The way you can …

Please … I didn’t come this way to hold your hand

I’m gonna start by holding you in my arms

And slowly, slowly rub your heart

I’m gonna get her

I’m gonna get her

I’m gonna get her

La la la la la la la la la la

La la la la la la la la la la

La la la la la la la la la la

La la la la la la la la la la

La la la la la la la la la la

La la la la la la la la la la.

ProTabs promo.jpg

Onbeperkt en gratis toegang tot alle 25.000
Tabs & Chords en direct meespelen met

Artiest Liedje

...

Gitaarakkoorden broken glass heroes - Delfonic

Dankzij de bladmuziek op deze pagina wordt het een stuk makkelijker om met de gitaar mee te spelen met Delfonic van broken glass heroes De ProTabs van Gitaartabs worden door onze professionele gitaardocenten samengesteld. De tabs en chords zijn door leden zelf geplaatst. Deze undefined van broken glass heroes met Delfonic is voor je geschreven door dare-devil

Tabs & Chords van broken glass heroes - Delfonic

Bij de ProTabs delen we niet alleen de tablatuur maar ook de speelwijze van Delfonic Met een beetje gitaar ervaring moet je dit gitaarliedje zeker kunnen spelen, maar als het niet lukt zijn we er altijd om je te helpen. Door een gratis account aan te maken krijg je niet alleen toegang tot deze tab ,akkoorden & tabs van Delfonic maar kun je ook onbeperkt meespelen met een van de meer dan 25.000 andere tabs & chords in onze database.

Plaats opmerking

Beoordeel deze song

Rate UsDon’t love itNot greatGoodGreatLove itRate Us

Bedankt voor je beoordeling!