Welcome to bucketheadland

Gitaarliedjes, tabs & akkoorden (chords) welcome to bucketheadland - buckethead

Songtype: Tab

arrow&v

Markeer als favoriet

Favoriet

Gemarkeerd als favoriet

Capo:

0

buckethead

buckethead

Song
Album
Categorie

welcome to bucketheadland

unknown

Downloads
Niveau
3
Geplaatst door
guitar_soof
ProTabs-promo.jpg

e|-----------------------------------------------------------|
B|-----------------------------------------------------------|
G|-----------------------------------------------------------| x4
D|----------------------------------------------------0------|
A|-------------0-10h-0-10h-0-9h-0-9h----------------4----5-5-|
E|-7-10h-7-10h-----------------------7-10h-7-10h--5------3-3-|

e|-----------------------------------------------------------------------------------|
B|-----------------------------------------------------------------------------------|
G|-----------------------------------------------------------7-6-4-------------------|
D|-------------^----------------7-----5----------------------------7-5-4-------------|
A|-----4-m-5-m-4--5-5--4-5-------------------4-m-5-m-4--5-5--------------7-5-4-------|
E|-2-2------------3-3-------3-3---3-3----2-2------------3-3--------------------7-5-3-|

e|-------------------------------------------------------------|
B|-------------------------------------------------------------|
G|-------------------------------------------------------------|
D|-------------^----------------7-----5------------------------|
A|-----4-m-5-m-4--5-5--4-5-------------------4-m-5-m-4--5-5----|
E|-2-2------------3-3-------3-3---3-3----2-2------------3-3----|

|---------------------|
|---------------------|
|---------------------| x4
|--------2--------2---|
|------4-2-4--5-5-2-4-|
|-7/2--2-0-2--3-3-0-2-|

e|-----------------------------------------------------------|
B|-----------------------------------------------------------|
G|-----------------------------------------------------------| x4
D|----------------------------------------------------0------|
A|-------------0-10h-0-10h-0-9h-0-9h----------------4----5-5-|
E|-7-10h-7-10h-----------------------7-10h-7-10h--5------3-3-|

e|-----------------------------------------------------------------------------------|
B|-----------------------------------------------------------------------------------|
G|-----------------------------------------------------------7-6-4-------------------|
D|-------------^----------------7-----5----------------------------7-5-4-------------|
A|-----4-m-5-m-4--5-5--4-5-------------------4-m-5-m-4--5-5--------------7-5-4-------|
E|-2-2------------3-3-------3-3---3-3----2-2------------3-3--------------------7-5-3-|

e|-------------------------------------------------------------|
B|-------------------------------------------------------------|
G|-------------------------------------------------------------|
D|-------------^----------------7-----5------------------------|
A|-----4-m-5-m-4--5-5--4-5-------------------4-m-5-m-4--5-5----|
E|-2-2------------3-3-------3-3---3-3----2-2------------3-3----|

|---------------------|
|---------------------|
|---------------------| x4
|--------2--------2---|
|------4-2-4--5-5-2-4-|
|-7/2--2-0-2--3-3-0-2-|

e|------------------------------------3~-2~-0~-|
B|-0-0-0-0-0-0--2-2-2-2-2--3-3-3-3-3-----------|
G|---------------------------------------------| x2
D|---------------------------------------------|
A|---------------------------------------------|
E|---------------------------------------------|

e|-----------------------------------------------------------------------------------|
B|-----------------------------------------------------------------------------------|
G|-----------------------------------------------------------7-6-4-------------------|
D|-------------^----------------7-----5----------------------------7-5-4-------------|
A|-----4-m-5-m-4--5-5--4-5-------------------4-m-5-m-4--5-5--------------7-5-4-------|
E|-2-2------------3-3-------3-3---3-3----2-2------------3-3--------------------7-5-3-|

e|-------------------------------------------------------------|
B|-------------------------------------------------------------|
G|-------------------------------------------------------------|
D|-------------^----------------7-----5------------------------|
A|-----4-m-5-m-4--5-5--4-5-------------------4-m-5-m-4--5-5----|
E|-2-2------------3-3-------3-3---3-3----2-2------------3-3----|

|---------------------|
|---------------------|
|---------------------| x4
|--------2--------2---|
|------4-2-4--5-5-2-4-|
|-7/2--2-0-2--3-3-0-2-|

e|-----------------------------------------------------------|
B|-----------------------------------------------------------|
G|-----------------------------------------------------------| x4
D|----------------------------------------------------0------|
A|-------------0-10h-0-10h-0-9h-0-9h----------------4----5-5-|
E|-7-10h-7-10h-----------------------7-10h-7-10h--5------3-3-|

e|-----------------------------------------------------------------------------------|
B|-----------------------------------------------------------------------------------|
G|-----------------------------------------------------------7-6-4-------------------|
D|-------------^----------------7-----5----------------------------7-5-4-------------|
A|-----4-m-5-m-4--5-5--4-5-------------------4-m-5-m-4--5-5--------------7-5-4-------|
E|-2-2------------3-3-------3-3---3-3----2-2------------3-3--------------------7-5-3-|

e|-------------------------------------------------------------|
B|-------------------------------------------------------------|
G|-------------------------------------------------------------|
D|-------------^----------------7-----5------------------------|
A|-----4-m-5-m-4--5-5--4-5-------------------4-m-5-m-4--5-5----|
E|-2-2------------3-3-------3-3---3-3----2-2------------3-3----|

e|------------------------------------3~-2~-0~-|
B|-0-0-0-0-0-0--2-2-2-2-2--3-3-3-3-3-----------|
G|---------------------------------------------| x2
D|---------------------------------------------|
A|---------------------------------------------|
E|---------------------------------------------|

e|--^--^--^--^--^--^--^--^--^--^-|
B|-19-19-19-19-19-19-19-19-19-19-|
G|-------------------------------|
D|-------------------------------|
A|-------------------------------|
E|-------------------------------|

ProTabs promo.jpg

Onbeperkt en gratis toegang tot alle 25.000
Tabs & Chords en direct meespelen met

Artiest Liedje

...

Gitaarakkoorden buckethead - welcome to bucketheadland

Dankzij de bladmuziek op deze pagina wordt het een stuk makkelijker om met de gitaar mee te spelen met welcome to bucketheadland van buckethead De ProTabs van Gitaartabs worden door onze professionele gitaardocenten samengesteld. De tabs en chords zijn door leden zelf geplaatst. Deze undefined van buckethead met welcome to bucketheadland is voor je geschreven door guitar_soof

Tabs & Chords van buckethead - welcome to bucketheadland

Bij de ProTabs delen we niet alleen de tablatuur maar ook de speelwijze van welcome to bucketheadland Met een beetje gitaar ervaring moet je dit gitaarliedje zeker kunnen spelen, maar als het niet lukt zijn we er altijd om je te helpen. Door een gratis account aan te maken krijg je niet alleen toegang tot deze tab ,akkoorden & tabs van welcome to bucketheadland maar kun je ook onbeperkt meespelen met een van de meer dan 25.000 andere tabs & chords in onze database.

Plaats opmerking

Beoordeel deze song

Rate UsDon’t love itNot greatGoodGreatLove itRate Us

Bedankt voor je beoordeling!