My heart will go on v1

Gitaarliedjes, tabs & akkoorden (chords) My heart will go on v1 - celine dion

Songtype: Tab

arrow&v

Markeer als favoriet

Favoriet

Gemarkeerd als favoriet

Capo:

0

celine dion

celine dion

Song
Album
Categorie

My heart will go on v1

titanic

Downloads
224
Niveau
1
Geplaatst door
shanna krielaart
ProTabs-promo.jpg

Celine Dion
My heart will go on

Tabs

e:---------------------------------|---------------------------------------------------------|
a:---------------------------------|---------------------------------------------------------|
d:---------------------------------|---------------------------------------------------------|
g:-------------------------------5|---------------------------------------------------------|
b:6-8---8-6-8-------------6--|6-8-------------------8-6-8-----------------------6|
e:----5------------8-8--6-5---|------5-5-5---5-6-5------8-8-5-8-10--8-5---|

Bij sommige noten is een hammer on mooi.

Couplet

e:--------------------------------------|-----------------------|-------------------------------------------------------------------|
a:--------------------------------------|-----------------------|-------------------------------------------------------------------|
d:--------------------------------------|-----------------------|-------------------------------------------------------------------|
g:--------------------------------------|---------------------5|-----------------------------------------------------------------5|
b:6--6-6-6-5-6-5-5-6-8------8|6--6-6-6-5-6-6--|6-6-6-6-5-6--5-5-6-6-8--------8-6-6-6-6-5-6-6---|
e:-----------------------------5-6-5-|-----------------------|----------------------------------5-6-5-------------------------|

Ook hier gebruik je bij sommige noten een hammer on.

Refrein

e:---------------------------------------------|-----------------------------------------------------|
a:---------------------------------------------|-----------------------------------------------------|
d:---------------------------------------------|-----------------------------------------------------|
g;------5-------------------------------7-7-|----5-----------------------------------------------|
b:6--8---------8--------8-6-5-6-5-5-5|6-8-------8-------8-6-5-6-5-5-6-8-8-6-6|
e;-------8-6-5--5-6-5--------------------|-----8-6-5-5-6-5---------------------5--------|

Couplet 2 (Een onderdeel is samenzang)

e:--------------------------------------|-----------------------|-------------------------------------------------------------------|
a:--------------------------------------|-----------------------|-------------------------------------------------------------------|
d:--------------------------------------|-----------------------|-------------------------------------------------------------------|
g:--------------------------------------|---------------------5|-----------------------------------------------------------------5|
b:6--6-6-6-5-6-5-5-6-8------8|6--6-6-6-5-6-6--|6-6-6-6-5-6--5-5-6-6-8--------8-6-6-6-6-5-6-6---|
e:-----------------------------5-6-5-|-----------------------|----------------------------------5-6-5-------------------------|

Refrein

e:-----------------------------------------------|-----------------------------------------------------|
a:-----------------------------------------------|-----------------------------------------------------|
d:-----------------------------------------------|-----------------------------------------------------|
g;------5-------------------------------7-7-5|----5-----------------------------------------------|
b:6--8---------8--------8-6-5-6-5-5-----|6-8-------8-------8-6-5-6-5-5-6-8-8-6-6|
e;-------8-6-5--5-6-5----------------------|-----8-6-5-5-6-5---------------------5--------|

Tussenstukje

e:---------------------------------|-------------------------------------------------------------------|
a:---------------------------------|-------------------------------------------------------------------|
d:---------------------------------|-------------------------------------------------------------------|
g:-------------------------------5|-------------------------------------------------------------------|
b:6-8---8-6-8-------------6--|6-8-------------------8-6-8-----------------------------------|
e:----5------------8-8--6-5---|------5-5-5---5-6-5------8-8-5-8-10-12-13-15-16|

Refrein
e:-------------------------------------------------|----------------------------------------------------------------------|
a:-------------------------------------------------|----------------------------------------------------------------------|
d:-------------------------------------------------|----------------------------------------------------------------------|
g:-------------------------------------------------|----------------------------------------------------------------------|
b:-----5-------------------------------------7-5|------5--------------------------------------------------------------|
e:5-7-12-10-9-7-8-9-8-7-5-4-5-4----|5-7---12-10-9-7-9-10-9-7-5-4-5-4-4-5-7-9-7-5-5|

Het einde

e:-------------------------|
a:-------------------------|
d:-------------------------|
g:-------------------------|
b:-------------------------|
e:7-9-7-5---------7-5|

ProTabs promo.jpg

Onbeperkt en gratis toegang tot alle 25.000
Tabs & Chords en direct meespelen met

Artiest Liedje

...

Gitaarakkoorden celine dion - My heart will go on v1

Dankzij de bladmuziek op deze pagina wordt het een stuk makkelijker om met de gitaar mee te spelen met My heart will go on v1 van celine dion De ProTabs van Gitaartabs worden door onze professionele gitaardocenten samengesteld. De tabs en chords zijn door leden zelf geplaatst. Deze undefined van celine dion met My heart will go on v1 is voor je geschreven door shanna krielaart

Tabs & Chords van celine dion - My heart will go on v1

Bij de ProTabs delen we niet alleen de tablatuur maar ook de speelwijze van My heart will go on v1 Met een beetje gitaar ervaring moet je dit gitaarliedje zeker kunnen spelen, maar als het niet lukt zijn we er altijd om je te helpen. Door een gratis account aan te maken krijg je niet alleen toegang tot deze tab ,akkoorden & tabs van My heart will go on v1 maar kun je ook onbeperkt meespelen met een van de meer dan 25.000 andere tabs & chords in onze database.

Plaats opmerking

Beoordeel deze song

Rate UsDon’t love itNot greatGoodGreatLove itRate Us

Bedankt voor je beoordeling!