Zombie

Gitaarliedjes, tabs & akkoorden (chords) Zombie - cranberries

Songtype: Tab

arrow&v

Markeer als favoriet

Favoriet

Gemarkeerd als favoriet

Capo:

0

cranberries

cranberries

Song
Album
Categorie

Zombie

dont need to argue

Downloads
5099
Niveau
1
Geplaatst door
gitaarfreak
ProTabs-promo.jpg

Dit nummer wordt gespeeld met 2 gitaren, dus ik heb hem hier maar geschreven zoals ik hem altijd speel.

intro:

Am Fmaj7 G D in het tempo: neer op neer op neer op neer op neer op dit speel je 1x.

e|-----------------------------------------------------------------------------------------------------------------------------------|
b|-----------------------------------------------------------------------------------------------------------------------------------|
g|-----------------------------------------------------------------------------------------------------------------------------------|
d|--2--2--2--2--2--2--2--2--2--2--2--2--2--2--2--2-------------------------------------------------------------------|
a|--2--2--2--2--2--2--2--2--3--3--3--3--3--3--3--3--2--2--2--2--2--2--2--2--0--0--0--0--0--0--0--0---|
e|--------------------------------------------------3--3--3--3--3--3--3--3--3--3--3--3--3--3--3--3---|

e|-------------------------------------------------------------------------------------------------------------------------------------|
b|-------------------------------------------------------------------------------------------------------------------------------------|
g|-----------------------------------------------------------------------------------------------------------------------------------2|
d|--2--2--2--2--2--2--2--2--2--2--2--2--2--2--2--2-------------------------------------------------------------------2|
a|--2--2--2--2--2--2--2--2--3--3--3--3--3--3--3--3--2--2--2--2--2--2--2--2--0--0--0--0--0--0--0--0-----|
e|--------------------------------------------------3--3--3--3--3--3--3--3--3--3--3--3--3--3--3--3-----|

mini-solo voor couplet:

e|--7h8--5h7--3h5 2h3p2-------------|
b|-------------------------2--2--0--|
g|------------------------------------------------|
d|------------------------------------------------|
a|------------------------------------------------|
e|------------------------------------------------|

couplet:

e|-----------------0--------------------------0------------------------------------2----------------------0--|
b|-----------------0--------------------------1---------------------------------------3-----------------------|
g|-----------------0--------------------------0-------------------------------------------2-------------------|
d|--2--2--2--2--2--2--2--2--2--2--2--2------------------------------------------------------0------0-------| 2x
a|--2--2--2--2--2--3--3--3--3--3--3--3--2--2--2--2--2--2--2--2---------------------------------0-----------|
e|------------------------------------- 3--3--3--3--3--3--3--3--------------------------------|

e|--0------------0-------------0----------------0---------------------3--------3------3------3---2-----------------------------0---|
b|---------0------------0---------------1---------------1-------0-----------0-------0------0-----------3----------------------------|
g|------0----0------0----0-------0-------0---------0-----0----------------------------------------------2------------------------|
d|------------------------------------------------------------------------------------------------------------------0--------0----------| 2x
a|-----------------------------------------------------------------------------------------------------------------------0---------------|
e|----------------------------------------------------------------------------------------------------------------------------------------|

refrein:

e|-----------------------------------------------------------------------------------------------------------------------------------|
b|-----------------------------------------------------------------------------------------------------------------------------------|
g|-----------------------------------------------------------------------------------------------------------------------------------|
d|--2--2--2--2--2--2--2--2--2--2--2--2--2--2--2--2-------------------------------------------------------------------| 2x
a|--2--2--2--2--2--2--2--2--3--3--3--3--3--3--3--3--2--2--2--2--2--2--2--2--0--0--0--0--0--0--0--0---|
e|--------------------------------------------------3--3--3--3--3--3--3--3--3--3--3--3--3--3--3--3---|

e|-------------------------------------------------------------------------------------------------------------------------------------|
b|-------------------------------------------------------------------------------------------------------------------------------------|
g|-----------------------------------------------------------------------------------------------------------------------------------2|
d|--2--2--2--2--2--2--2--2--2--2--2--2--2--2--2--2-------------------------------------------------------------------2|
a|--2--2--2--2--2--2--2--2--3--3--3--3--3--3--3--3--2--2--2--2--2--2--2--2--0--0--0--0--0--0--0--0-----|
e|--------------------------------------------------3--3--3--3--3--3--3--3--3--3--3--3--3--3--3--3-----|

mini-solo voor couplet:

e|--7h8--5h7--3h5 2h3p2-------------|
b|------------------------------------2--2--0--|
g|------------------------------------------------|
d|------------------------------------------------|
a|------------------------------------------------|
e|------------------------------------------------|


couplet:

e|------------------0--------------------------0------------------------------------2----------------------0--|
b|------------------0--------------------------1---------------------------------------3-----------------------|
g|------------------0--------------------------0-------------------------------------------2-------------------|
d|--2--2--2--2--2--2--2--2--2--2--2--2-------------------------------------------------------0------0-------| 2x
a|--2--2--2--2--2--3--3--3--3--3--3--3--2--2--2--2--2--2--2--2----------------------------------0-----------|
e|--------------------------------------3--3--3--3--3--3--3--3--------------------------------|

e|--0------------0-------------0----------------0---------------------3--------3------3------3---2-----------------------------0---|
b|---------0------------0---------------1--------------1-----------0-------0-------0------0----------3----------------------------|
g|------0----0------0----0-------0-------0---------0-----0----------------------------------------------2------------------------|
d|------------------------------------------------------------------------------------------------------------------0--------0----------| 2x
a|-----------------------------------------------------------------------------------------------------------------------0---------------|
e|----------------------------------------------------------------------------------------------------------------------------------------|

refrein:

e|-----------------------------------------------------------------------------------------------------------------------------------|
b|-----------------------------------------------------------------------------------------------------------------------------------|
g|-----------------------------------------------------------------------------------------------------------------------------------|
d|--2--2--2--2--2--2--2--2--2--2--2--2--2--2--2--2-------------------------------------------------------------------| 3x
a|--2--2--2--2--2--2--2--2--3--3--3--3--3--3--3--3--2--2--2--2--2--2--2--2--0--0--0--0--0--0--0--0---|
e|------------------------------------------------- 3--3--3--3--3--3--3--3--3--3--3--3--3--3--3--3---|

e|-------------------------------------------------------------------------------------------------------------------------------------|
b|-------------------------------------------------------------------------------------------------------------------------------------|
g|-----------------------------------------------------------------------------------------------------------------------------------2|
d|--2--2--2--2--2--2--2--2--2--2--2--2--2--2--2--2-------------------------------------------------------------------2|
a|--2--2--2--2--2--2--2--2--3--3--3--3--3--3--3--3--2--2--2--2--2--2--2--2--0--0--0--0--0--0--0--0-----|
e|--------------------------------------------------3--3--3--3--3--3--3--3--3--3--3--3--3--3--3--3-----|

solo:

e|---7h8---5h7--7h8---5h7--7--7--7--7h8--5h7--7--7--7--7h8--5h7--2--2--2h3--0h2--2--2--2--2h3--0h2--2--2--2--2h3--0h2--2--0--0
b|--------------------------------------------------------------------------------------------------------------------------------------------------------------------------------------|
g|--------------------------------------------------------------------------------------------------------------------------------------------------------------------------------------|
d|--------------------------------------------------------------------------------------------------------------------------------------------------------------------------------------|
a|--------------------------------------------------------------------------------------------------------------------------------------------------------------------------------------|
e|--------------------------------------------------------------------------------------------------------------------------------------------------------------------------------------|

e|--2--2/5--5---5h7--7-5--5--5h7--7--5--5--5/2--2--2--0--0--2--2h3--0h2--2--2--2--2h3--0h2--2--2--2--2h3--0h2--2--0--0---0
b|----------------------------------------------------------------------------------------------------------------------------------------0
g|----------------------------------------------------------------------------------------------------------------------------------------0
d|----------------------------------------------------------------------------------------------------------------------------------------2
a|----------------------------------------------------------------------------------------------------------------------------------------2
e|----------------------------------------------------------------------------------------------------------------------------------------0


/ = slide
p= pull off
h= hammer on

(voor degene die t niet weten ;-) )

That's all!

Succes drmee!

ProTabs promo.jpg

Onbeperkt en gratis toegang tot alle 25.000
Tabs & Chords en direct meespelen met

Artiest Liedje

...

Gitaarakkoorden cranberries - Zombie

Dankzij de bladmuziek op deze pagina wordt het een stuk makkelijker om met de gitaar mee te spelen met Zombie van cranberries De ProTabs van Gitaartabs worden door onze professionele gitaardocenten samengesteld. De tabs en chords zijn door leden zelf geplaatst. Deze undefined van cranberries met Zombie is voor je geschreven door gitaarfreak

Tabs & Chords van cranberries - Zombie

Bij de ProTabs delen we niet alleen de tablatuur maar ook de speelwijze van Zombie Met een beetje gitaar ervaring moet je dit gitaarliedje zeker kunnen spelen, maar als het niet lukt zijn we er altijd om je te helpen. Door een gratis account aan te maken krijg je niet alleen toegang tot deze tab ,akkoorden & tabs van Zombie maar kun je ook onbeperkt meespelen met een van de meer dan 25.000 andere tabs & chords in onze database.

Plaats opmerking

Beoordeel deze song

Rate UsDon’t love itNot greatGoodGreatLove itRate Us

Bedankt voor je beoordeling!