Have you ever seen the rain

Gitaarliedjes, tabs & akkoorden (chords) Have you ever seen the rain - creedence clearwater revival

Songtype: Tab

arrow&v

Markeer als favoriet

Favoriet

Gemarkeerd als favoriet

Capo:

0

creedence clearwater revival

creedence clearwater revival

Song
Album
Categorie

Have you ever seen the rain

Downloads
4158
Niveau
1

Geplaatst door
michel
ProTabs-promo.jpg

have you ever seen the rain





Someone told me long ago

E|--------------|--------------|--------------|--0-----------|
B|--------------|--------------|-----1--1-----|-----1--1-----|
G|--------------|--------------|--0--------2--|--------------|
D|--------------|--------------|--------------|--------------|
A|--------------|--------------|--------------|--------------|
E|--------------|--------------|--------------|--------------|



There's a calm before the storm i know It's been coming

E|--------------|--0--------3--|--3-----------|--3--3--3--1--|
B|-----1--1-----|-----1--1-----|--------------|--------------|
G|--0--------2--|--------------|--------------|--------------|
D|--------------|--------------|--------------|--------------|
A|--------------|--------------|--------------|--------------|
E|--------------|--------------|--------------|--------------|


for some time. When it's over so they say It will rain a

E|--1--0--------|--------------|--0-----------|--------------|
B|--------1-----|-----1--1-----|-----1--1-----|-----1--1-----|
G|--------------|--0--------2--|--------------|--0---------2-|
D|--------------|--------------|--------------|--------------|
A|--------------|--------------|--------------|--------------|
E|--------------|--------------|--------------|--------------|


sunny day I know Shining down like water

E|--0--------3--|--3-----------|--3--3--3--1--|--1--0--------|
B|-----1--1-----|--------------|--------------|--------------|
G|--------------|--------------|--------------|--------------|
D|--------------|--------------|--------------|--------------|
A|--------------|--------------|--------------|--------------|
E|--------------|--------------|--------------|--------------|


I wanna know have you ever seen the rain.

E|----------5---|--3--1--3---0-|--1--3--3--3--|--------------|
B|--------------|--------------|--------------|--1--1--------|
G|--------------|--------------|--------------|--------------|
D|--------------|--------------|--------------|--------------|
A|--------------|--------------|--------------|--------------|
E|--------------|--------------|--------------|--------------|


I wanna know have you ever seen the rain

E|-----------5--|--3--1--3---0-|--1--3--3--3--|--------------|
B|--------------|--------------|--------------|--1--1--------|
G|--------------|--------------|--------------|--------------|
D|--------------|--------------|--------------|--------------|
A|--------------|--------------|--------------|--------------|
E|--------------|--------------|--------------|--------------|


coming down on a sunny day

E|-----------1--|--------0-----|--------------|--------------|
B|--------0-----|--1--------1--|-1------------|--------------|
G|--------------|-----0--------|--------------|--------------|
D|--------------|--------------|--------------|--------------|
A|--------------|--------------|--------------|--------------|
E|--------------|--------------|--------------|--------------|


Yesterday and days before sun is calm and rain ia hard I

E|--------------|--0-----------|--------------|--0--------3--|
B|-----1--1-----|-----1--1-----|-----1--1-----|-----1--1-----|
G|--0--------2--|--------------|--0--------2--|--------------|
D|--------------|--------------|--------------|--------------|
A|--------------|--------------|--------------|--------------|
E|--------------|--------------|--------------|--------------|


Know been that way for all my time

E|---3----------|--3--3--3--1--|--1--0--------|--------------|
B|--------------|--------------|--------1-----|--------------|
G|--------------|--------------|--------------|--------------|
D|--------------|--------------|--------------|--------------|
A|--------------|--------------|--------------|--------------|
E|--------------|--------------|--------------|--------------|


"Til forever on it goes through the circle fast and slow I

E|--------------|---0----------|--------------|--0--------3--|
B|-----1--1-----|------1--1----|-----1--1-----|-----1--1-----|
G|--0--------2--|--------------|--0--------2--|--------------|
D|--------------|--------------|--------------|--------------|
A|--------------|--------------|--------------|--------------|
E|--------------|--------------|--------------|--------------|


know I can't stop I wonder

E|--3-----------|--3--3--3--1--|--1--0--------|--------------|
B|--------------|--------------|--------------|--------------|
G|--------------|--------------|--------------|--------------|
D|--------------|--------------|--------------|--------------|
A|--------------|--------------|--------------|--------------|
E|--------------|--------------|--------------|--------------|


Chorus
I wanna know have you ever seen the rain

E|--------5-----|--3--1--3--0--|--1--3--3--3--|--------------|
B|--------------|--------------|--------------|--1--1--------|
G|--------------|--------------|--------------|--------------|
D|--------------|--------------|--------------|--------------|
A|--------------|--------------|--------------|--------------|
E|--------------|--------------|--------------|--------------|


I wanna know have you ever seen the rain

E|-----------5--|--3--1--3--0--|--1--3--3--3--|--------------|
B|--------------|--------------|--------------|--1--1--------|
G|--------------|--------------|--------------|--------------|
D|--------------|--------------|--------------|--------------|
A|--------------|--------------|--------------|--------------|
E|--------------|--------------|--------------|--------------|


coming down on a sunny day YEAHHH!!!

E|--------------|--------0-----|--------------|------8-------|
B|----------1---|--1--------1--|--1-----------|--------------|
G|-------0------|-----0--------|--------------|--------------|
D|--------------|--------------|--------------|--------------|
A|--------------|--------------|--------------|--------------|
E|--------------|--------------|--------------|--------------|


Chorus
I wanna know have you ever seen the rain

E|---------5----|--3--1--3--0--|--1--3--3--3--|--------------|
B|--------------|--------------|--------------|--1--1--------|
G|--------------|--------------|--------------|--------------|
D|--------------|--------------|--------------|--------------|
A|--------------|--------------|--------------|--------------|
E|--------------|--------------|--------------|--------------|


I wanna know have you ever seen the rain

E|----------5---|--3--1--3--0--|--1--3--3--3--|--------------|
B|--------------|--------------|--------------|--1--1--------|
G|--------------|--------------|--------------|--------------|
D|--------------|--------------|--------------|--------------|
A|--------------|--------------|--------------|--------------|
E|--------------|--------------|--------------|--------------|


coming down on a sunny day

E|--------------|--------0-----|--------------|--------------|
B|----------1---|--1--------1--|--1-----------|--------------|
G|-------0------|-----0--------|--------------|--------------|
D|--------------|--------------|--------------|--------------|
A|--------------|--------------|--------------|--------------|
E|--------------|--------------|--------------|--------------|

ProTabs promo.jpg

Onbeperkt en gratis toegang tot alle 25.000
Tabs & Chords en direct meespelen met

Artiest Liedje

...

Gitaarakkoorden creedence clearwater revival - Have you ever seen the rain

Dankzij de bladmuziek op deze pagina wordt het een stuk makkelijker om met de gitaar mee te spelen met Have you ever seen the rain van creedence clearwater revival De ProTabs van Gitaartabs worden door onze professionele gitaardocenten samengesteld. De tabs en chords zijn door leden zelf geplaatst. Deze undefined van creedence clearwater revival met Have you ever seen the rain is voor je geschreven door michel

Tabs & Chords van creedence clearwater revival - Have you ever seen the rain

Bij de ProTabs delen we niet alleen de tablatuur maar ook de speelwijze van Have you ever seen the rain Met een beetje gitaar ervaring moet je dit gitaarliedje zeker kunnen spelen, maar als het niet lukt zijn we er altijd om je te helpen. Door een gratis account aan te maken krijg je niet alleen toegang tot deze tab ,akkoorden & tabs van Have you ever seen the rain maar kun je ook onbeperkt meespelen met een van de meer dan 25.000 andere tabs & chords in onze database.

Plaats opmerking

Verstuur

Beoordeel deze song

Rate UsDon’t love itNot greatGoodGreatLove itRate Us

Bedankt voor je beoordeling!