Older chests

Gitaarliedjes, tabs & akkoorden (chords) Older chests - damien rice

Songtype: Tab

arrow&v

Markeer als favoriet

Favoriet

Gemarkeerd als favoriet

Capo:

0

damien rice

damien rice

Song
Album
Categorie

Older chests

Downloads
294
Niveau
1
o

Geplaatst door
anotherlatenight
ProTabs-promo.jpg

1 gitaarlijn welke gedurende de hele song gespeeld wordt...easy as that!


e|-------------------------------------------------------------|
B|----1------------1-------1---------1------------1-------1----|
G|------0--0---------0-----------------0--0---------0----------|
D|--------2------2-------2---0-----------2------2-------2---0--|
A|--3------------------------------3---------------------------|
E|-------------1-------3----------------------1-------3--------|

e|-------------------------------------------------------------|
B|----1--------------1-------1---------2-----2-----------------|
G|------2---2----------0---0-------------0-----0---0-----------|
D|--------2--------0-----------2-2/3-3-----3-----3-------------|
A|--0-----------2--------3-------------------------------------|
E|-------------------------------------------------------------|


Older chests reveal themselves
Like a crack in a wall
Starting small, and grow in time
And we always seem to need the help
Of someone else
To mend that shelf
Too many books
Read me your favourite line

Papa went to other lands
And he found someone who understands
The ticking, and the western man's need to cry
He came back the other day, you know
Some things in life may change
And some things
They stay the same

Like time, there's always time
On my mind
So pass me by, I'll be fine
Just give me time

Older gents sit on the fence
With their cap in hand
Looking grand
They watch their city change
Children scream, or so it seems,
Louder than before
Out of doors, and into stores with bigger names
Mama tried to wash their faces
But these kids they lost their graces
And daddy lost at the races too many times

She broke down the other day, yeah you know
Some things in life may change
But some things they stay the same

Like time, there's always time
On my mind
So pass me by, I'll be fine
Just give me time
Time, there's always time
On my mind
Pass me by, I'll be fine
Just give me time

ProTabs promo.jpg

Onbeperkt en gratis toegang tot alle 25.000
Tabs & Chords en direct meespelen met

Artiest Liedje

...

Gitaarakkoorden damien rice - Older chests

Dankzij de bladmuziek op deze pagina wordt het een stuk makkelijker om met de gitaar mee te spelen met Older chests van damien rice De ProTabs van Gitaartabs worden door onze professionele gitaardocenten samengesteld. De tabs en chords zijn door leden zelf geplaatst. Deze undefined van damien rice met Older chests is voor je geschreven door anotherlatenight

Tabs & Chords van damien rice - Older chests

Bij de ProTabs delen we niet alleen de tablatuur maar ook de speelwijze van Older chests Met een beetje gitaar ervaring moet je dit gitaarliedje zeker kunnen spelen, maar als het niet lukt zijn we er altijd om je te helpen. Door een gratis account aan te maken krijg je niet alleen toegang tot deze tab ,akkoorden & tabs van Older chests maar kun je ook onbeperkt meespelen met een van de meer dan 25.000 andere tabs & chords in onze database.

Plaats opmerking

Verstuur

Beoordeel deze song

Rate UsDon’t love itNot greatGoodGreatLove itRate Us

Bedankt voor je beoordeling!