The little things

Gitaarliedjes, tabs & akkoorden (chords) the little things - danny elfman

Songtype: Tab

arrow&v

Markeer als favoriet

Favoriet

Gemarkeerd als favoriet

Capo:

0

danny elfman

danny elfman

Song
Album
Categorie

the little things

Downloads
22
Niveau
1
wanted

Geplaatst door
gitaartabs
ProTabs-promo.jpg

dit is de eerste keer dat ik iets erop zet dus als jullie tips hebben ze zijn van harte welkom!

het eerste stukje is alleen bass:

e|---------------------------------------------------------------|
B|---------------------------------------------------------------|
G|---------------------------------------------------------------|
D|---------------------------------------------------------------|
A|-----1--2-1---1---2-1-----1--2-1-4-1-2---1---2-1---------------|
E|---4--------4-----------4--------------4-----------------------|

nu komt de gitaar er bij met het zelfde ritme

e|---------------------------------------------------------------|
B|---------------------------------------------------------------|
G|---------------------------------------------------------------|
D|---------------------------------------------------------------|
A|-----1--2-1---1---2-1-----1--2-1-4-1-2---1---2-1---------------|
E|---4--------4-----------4---------------4----------------------|
--


e|------------------------------------------------------------|
B|------------------------------------------------------------|
G|------------------------------------------------------------|
D|----8--8--8------4-/--(6) 6--------8--8--8------4-/--(6) 6--|
A|----8--8--8------4-/--(6) 6--------8--8--8------4-/--(6) 6--|
E|----6--6--6------2-/--(4) 4--------6--6--6------2-/--(4) 4--|

e|----------------------------------------------------------------------|
B|----------------------------------------------------------------------|
G|----------------------------------------------------------------------|
D|----8--8--8------4-/--(6) 6-------------------------------------------|
A|----8--8--8------4-/--(6) 6----------------1----2-1-4-1-2----1---2-1--|
E|----6--6--6------2-/--(4) 4--------------4-----------------4----------|




e|--------------------------------------------------------------------|
B|--------------------------------------------------------------------|
G|-----8-8-8-8------------6-6-6-6-------|
D|-----8-8-8-8----------6-6-6-6--------|
A|-----6-6-6-6---------------4-4-4-4--------|
E|--------------------------------------------------------------------|

e|------------------------------------------------------|
B|------------------------------------------------------|
G|------8-8--8--8--8--8---------------------------------|
D|------8-8--8--8--8--8-------------------|
A|------6-6--6--6--6--6-----------------------|
E|--------------------------------------|

nu begin je weer opnieuw:

e|----------------------------------------------------------------------|
B|----------------------------------------------------------------------|
G|----------------------------------------------------------------------|
D|----------------------------------------------------------------------|
A|-----1---2-1----------1---2-1---------1------2-1-4-1-2-----1---2-1----|
E|---4-------------4-----------------4---------------------4------------|



e|-------------------------------------------------------------|
B|-------------------------------------------------------------|
G|-------------------------------------------------------------|
D|----8--8--8------4-/--(6) 6--------8--8--8------4-/--(6) 6---|
A|----8--8--8------4-/--(6) 6--------8--8--8------4-/--(6) 6---|
E|----6--6--6------2-/--(4) 4--------6--6--6------2-/--(4) 4---|

e|----------------------------------------------------------------------|
B|----------------------------------------------------------------------|
G|----------------------------------------------------------------------|
D|----8--8--8------4-/--(6) 6-------------------------------------------|
A|----8--8--8------4-/--(6) 6----------------1----2-1-4-1-2----1---2-1--|
E|----6--6--6------2-/--(4) 4--------------4----------------4-----------|



e|---------------------------------------------------------------|
B|---------------------------------------------------------------|
G|---------------------------------------------------------------|
D|----8--8--8------4-/--(6) 6--------8--8--8------4-/--(6) 6-----|
A|----8--8--8------4-/--(6) 6--------8--8--8------4-/--(6) 6-----|
E|----6--6--6------2-/--(4) 4--------6--6--6------2-/--(4) 4-----|

e|-------------------------------------------------------------------|
B|-------------------------------------------------------------------|
G|-------------------------------------------------------------------|
D|----8--8--8------4-/--(6) 6----------------------------------------|
A|----8--8--8------4-/--(6) 6-------------1----2-1-4-1-2----1---2-1--|
E|----6--6--6------2-/--(4) 4-----------4----------------4-----------|

en nu de gitaarslolo ik heb hem nog niet zo goed voor elkaar maar het is een begin:
e|-------------------------------------------------------------|
B|-------------------------------------------------------------|
G|------8--------------3---------------6----------------8------|
D|------8--------------3---------------6----------------8------|
A|------6--------------1---------------4----------------6------|
E|-------------------------------------------------------------|

de solo eindigt en we beginnen weer opnieuw:

e|------------------------------------------------------------------------|
B|------------------------------------------------------------------------|
G|------------------------------------------------------------------------|
D|------------------------------------------------------------------------|
A|-----1---2-1-----------1---2-1-----------1------2-1-4-1-2-----1---2-1---|
E|---4-----------------4-----------------4------------------4-------------|

de gitaar stopt nu en alleen de bass gaat verder.
een paar seconden later springt de gitaar weer in en ga je weer verder:

e|---------------------------------------------------------------|
B|---------------------------------------------------------------|
G|---------------------------------------------------------------|
D|---------------------------------------------------------------|
A|-----1--2-1---1---2-1-----1--2-1-4-1-2---1---2-1---------------|
E|---4--------4-----------4---------------4----------------------|

veel succes. heb er plezier van en reageer en geef tips alstublieft!!!


| / slide up
| \ slide down
| h hammer-on
| p pull-off
| ~ vibrato
| + harmonic
| x Mute note

ProTabs promo.jpg

Onbeperkt en gratis toegang tot alle 25.000
Tabs & Chords en direct meespelen met

Artiest Liedje

...

Gitaarakkoorden danny elfman - the little things

Dankzij de bladmuziek op deze pagina wordt het een stuk makkelijker om met de gitaar mee te spelen met the little things van danny elfman De ProTabs van Gitaartabs worden door onze professionele gitaardocenten samengesteld. De tabs en chords zijn door leden zelf geplaatst. Deze undefined van danny elfman met the little things is voor je geschreven door gitaartabs

Tabs & Chords van danny elfman - the little things

Bij de ProTabs delen we niet alleen de tablatuur maar ook de speelwijze van the little things Met een beetje gitaar ervaring moet je dit gitaarliedje zeker kunnen spelen, maar als het niet lukt zijn we er altijd om je te helpen. Door een gratis account aan te maken krijg je niet alleen toegang tot deze tab ,akkoorden & tabs van the little things maar kun je ook onbeperkt meespelen met een van de meer dan 25.000 andere tabs & chords in onze database.

Plaats opmerking

Verstuur

Beoordeel deze song

Rate UsDon’t love itNot greatGoodGreatLove itRate Us

Bedankt voor je beoordeling!