Machine head

Gitaarliedjes, tabs & akkoorden (chords) machine head - deep purple.

Songtype: Tab

arrow&v

Markeer als favoriet

Favoriet

Gemarkeerd als favoriet

Capo:

0

deep purple.

deep purple.

Song
Album
Categorie

machine head

Downloads
Niveau
3
Geplaatst door
larse
ProTabs-promo.jpg

Intro/Main:
E|----------------------------|
B|----------------------------|
G|-6--6--8--8--8--9--9--11-11-| X10
D|-X--X--X--X--X--X--X--X--X--|
A|-4--4--6--6--6--7--7--9--9--|
E|----------------------------|

Rhythm Fill 1: (After Second Main Riff)
E|-W+W---W+W-|
B|-----------|
G|--6-----2--| X2
D|--6-----2--|
A|--4-----0--|
E|-----------|


E|------------------------------------------------------|
B|------------------------------------------------------|
G|-6-6--X-X-X--6-6-6--X-X-X--6-6--X-X-X--6-6-6--X-X-X-X-|
D|-6-6--X-X-X--6-6-6--X-X-X--6-6--X-X-X--6-6-6--X-X-X-X-|
A|-4-4--X-X-X--4-4-4--X-X-X--4-4--X-X-X--4-4-4--X-X-X-X-|
E|------------------------------------------------------|
X2
E|------------------------------------------------------|
B|------------------------------------------------------|
G|-2-2--X-X-X--2-2-2--X-X-X--2-2--X-X-X--2-2-2--X-X-X-X-|
D|-2-2--X-X-X--2-2-2--X-X-X--2-2--X-X-X--2-2-2--X-X-X-X-|
A|-0-0--X-X-X--0-0-0--X-X-X--0-0--X-X-X--0-0-0--X-X-X-X-|
E|------------------------------------------------------|


E|----------------------------|
B|----------------------------|
G|-6--6--8--8--8--9--9--11-11-| X3
D|-X--X--X--X--X--X--X--X--X--|
A|-4--4--6--6--6--7--7--9--9--|
E|----------------------------|

Lead Fill 1: (After Second Main Riff)
E|-9-9-9-9--7-7-7-7--9-9-9-9--7-7-7-7-|
B|-9-9-9-9--7-7-7-7--9-9-9-9--7-7-7-7-| X2
G|------------------------------------|
D|------------------------------------|
A|------------------------------------|
E|------------------------------------|


E|---W+W---|------W+W---W+W-|
B|---------|----------------|
G|---------|-6-----2-----6--| X2
D|-R-E-S-T-|-6-----2-----6--|
A|---------|-4-----0-----4--|
E|---------|----------------|


E|------------------------------------------------------|
B|------------------------------------------------------|
G|-6-6--X-X-X--6-6-6--X-X-X--6-6--X-X-X--6-6-6--X-X-X-X-|
D|-6-6--X-X-X--6-6-6--X-X-X--6-6--X-X-X--6-6-6--X-X-X-X-|
A|-4-4--X-X-X--4-4-4--X-X-X--4-4--X-X-X--4-4-4--X-X-X-X-|
E|------------------------------------------------------|
X3
E|------------------------------------------------------|
B|------------------------------------------------------|
G|-2-2--X-X-X--2-2-2--X-X-X--2-2--X-X-X--2-2-2--X-X-X-X-|
D|-2-2--X-X-X--2-2-2--X-X-X--2-2--X-X-X--2-2-2--X-X-X-X-|
A|-0-0--X-X-X--0-0-0--X-X-X--0-0--X-X-X--0-0-0--X-X-X-X-|
E|------------------------------------------------------|

Main: (After Second Verse)
E|----------------------------|
B|----------------------------|
G|-6--6--8--8--8--9--9--11-11-| X4
D|-X--X--X--X--X--X--X--X--X--|
A|-4--4--6--6--6--7--7--9--9--|
E|----------------------------|

|-W-|
E|-W+W+W+W-|------------------------------------(0)~~~~-|
B|---------|-4h5p4~~--4h5p4~~--4h5p4~~--4h5p4~~---------|
G|---------|--------------------------------------------| X2
D|-R-E-S-T-|--------------------------------------------|
A|---------|--------------------------------------------|
E|---------|--------------------------------------------|


E|----------------------------------|
B|----------------------------------|
G|------------------2--2--2-2-2-2-2-| X2
D|-4--4--4-4-4-4-4--2--2--2-2-2-2-2-|
A|-4--4--4-4-4-4-4--0--0--0-0-0-0-0-|
E|-2--2--2-2-2-2-2------------------|


E|----------------------------|
B|----------------------------|
G|-6--6--8--8--8--9--9--11-11-| X2
D|-X--X--X--X--X--X--X--X--X--|
A|-4--4--6--6--6--7--7--9--9--|
E|----------------------------|

Verse
E|------------------------------------------------------|
B|------------------------------------------------------|
G|-6-6--X-X-X--6-6-6--X-X-X--6-6--X-X-X--6-6-6--X-X-X-X-|
D|-6-6--X-X-X--6-6-6--X-X-X--6-6--X-X-X--6-6-6--X-X-X-X-|
A|-4-4--X-X-X--4-4-4--X-X-X--4-4--X-X-X--4-4-4--X-X-X-X-|
E|------------------------------------------------------|
X2
E|------------------------------------------------------|
B|------------------------------------------------------|
G|-2-2--X-X-X--2-2-2--X-X-X--2-2--X-X-X--2-2-2--X-X-X-X-|
D|-2-2--X-X-X--2-2-2--X-X-X--2-2--X-X-X--2-2-2--X-X-X-X-|
A|-0-0--X-X-X--0-0-0--X-X-X--0-0--X-X-X--0-0-0--X-X-X-X-|
E|------------------------------------------------------|


E|-9-9-9-9--7-7-7-7--9-9-9-9--7-7-7-7-|
B|-9-9-9-9--7-7-7-7--9-9-9-9--7-7-7-7-| X2
G|------------------------------------|
D|------------------------------------|
A|------------------------------------|
E|------------------------------------|

|-W-|
E|-W+W----W----7B-|
B|-------------7B-|
G|--6---6-2-------| X2
D|--6---6-2-------|
A|--4---4-0-------|
E|----------------|


E|------------------------------------------------------|
B|------------------------------------------------------|
G|-6-6--X-X-X--6-6-6--X-X-X--6-6--X-X-X--6-6-6--X-X-X-X-|
D|-6-6--X-X-X--6-6-6--X-X-X--6-6--X-X-X--6-6-6--X-X-X-X-|
A|-4-4--X-X-X--4-4-4--X-X-X--4-4--X-X-X--4-4-4--X-X-X-X-|
E|------------------------------------------------------|
X2
E|------------------------------------------------------|
B|------------------------------------------------------|
G|-2-2--X-X-X--2-2-2--X-X-X--2-2--X-X-X--2-2-2--X-X-X-X-|
D|-2-2--X-X-X--2-2-2--X-X-X--2-2--X-X-X--2-2-2--X-X-X-X-|
A|-0-0--X-X-X--0-0-0--X-X-X--0-0--X-X-X--0-0-0--X-X-X-X-|
E|------------------------------------------------------|


E|-----------------------------------------|
B|-----------------------------------------|
G|-9--9--9---------------------------------| X3
D|-9--9--9--9-9-9-9-9--11-11-11--7-7-7-7-7-|
A|-7--7--7--9-9-9-9-9--11-11-11--7-7-7-7-7-|
E|----------7-7-7-7-7---9--9--9--5-5-5-5-5-|

Fig. 4:
E|------------------------|----W----|
B|------------------------|---------|
G|-9--9--9----------------|---------|
D|-9--9--9--9-9-9-9-9--11-|-R-E-S-T-|
A|-7--7--7--9-9-9-9-9--11-|---------|
E|----------7-7-7-7-7---9-|---------|


E|----------------------------------|
B|----------------------------------|
G|------------------2--2--2-2-2-2-2-| X2
D|-4--4--4-4-4-4-4--2--2--2-2-2-2-2-|
A|-4--4--4-4-4-4-4--0--0--0-0-0-0-0-|
E|-2--2--2-2-2-2-2------------------|


E|-W+W+W+W-|
B|---------|
G|---------|
D|-R-E-S-T-|
A|---------|
E|---------|


E|----------------------------|
B|----------------------------|
G|-6--6--8--8--8--9--9--11-11-| X2
D|-6--6--8--8--8--9--9--11-11-|
A|-4--4--6--6--6--7--7--9--9--|
E|----------------------------|
PM . . . . . . . . .


E|----------------------------|
B|----------------------------|
G|-6--6--8--8--8--9--9--11-11-| X2
D|-X--X--X--X--X--X--X--X--X--|
A|-4--4--6--6--6--7--7--9--9--|
E|----------------------------|


E|------------------------------------------------------|
B|------------------------------------------------------|
G|-6-6--X-X-X--6-6-6--X-X-X--6-6--X-X-X--6-6-6--X-X-X-X-|
D|-6-6--X-X-X--6-6-6--X-X-X--6-6--X-X-X--6-6-6--X-X-X-X-|
A|-4-4--X-X-X--4-4-4--X-X-X--4-4--X-X-X--4-4-4--X-X-X-X-|
E|------------------------------------------------------|

E|------------------------------------------------------|
B|------------------------------------------------------|
G|-2-2--X-X-X--2-2-2--X-X-X--2-2--X-X-X--2-2-2--X-X-X-X-|
D|-2-2--X-X-X--2-2-2--X-X-X--2-2--X-X-X--2-2-2--X-X-X-X-|
A|-0-0--X-X-X--0-0-0--X-X-X--0-0--X-X-X--0-0-0--X-X-X-X-|
E|------------------------------------------------------|


E|-----------------------------------------|
B|-----------------------------------------|
G|-9--9--9---------------------------------| X8
D|-9--9--9--9-9-9-9-9--11-11-11--7-7-7-7-7-|
A|-7--7--7--9-9-9-9-9--11-11-11--7-7-7-7-7-|
E|----------7-7-7-7-7---9--9--9--5-5-5-5-5-|


E|---------------------------------------|
B|---------------------------------------|
G|---------------------------------------| X4
D|-4-4-4-4-4-4-4-4--7-7-7-7-7-7-7-7--(4)-|
A|-4-4-4-4-4-4-4-4--7-7-7-7-7-7-7-7--(4)-|
E|-2-2-2-2-2-2-2-2--5-5-5-5-5-5-5-5--(2)-|

ProTabs promo.jpg

Onbeperkt en gratis toegang tot alle 25.000
Tabs & Chords en direct meespelen met

Artiest Liedje

...

Gitaarakkoorden deep purple. - machine head

Dankzij de bladmuziek op deze pagina wordt het een stuk makkelijker om met de gitaar mee te spelen met machine head van deep purple. De ProTabs van Gitaartabs worden door onze professionele gitaardocenten samengesteld. De tabs en chords zijn door leden zelf geplaatst. Deze undefined van deep purple. met machine head is voor je geschreven door larse

Tabs & Chords van deep purple. - machine head

Bij de ProTabs delen we niet alleen de tablatuur maar ook de speelwijze van machine head Met een beetje gitaar ervaring moet je dit gitaarliedje zeker kunnen spelen, maar als het niet lukt zijn we er altijd om je te helpen. Door een gratis account aan te maken krijg je niet alleen toegang tot deze tab ,akkoorden & tabs van machine head maar kun je ook onbeperkt meespelen met een van de meer dan 25.000 andere tabs & chords in onze database.

Plaats opmerking

Beoordeel deze song

Rate UsDon’t love itNot greatGoodGreatLove itRate Us

Bedankt voor je beoordeling!