Smoke on the water (allemaal variaties)

Gitaarliedjes, tabs & akkoorden (chords) Smoke on the water (allemaal variaties) - deep purple.

Songtype: Tab

arrow&v

Markeer als favoriet

Favoriet

Gemarkeerd als favoriet

Capo:

0

deep purple.

deep purple.

Song
Album
Categorie

Smoke on the water (allemaal variaties)

Downloads
5762
Niveau
1
Geplaatst door
jordy323
ProTabs-promo.jpg

Hallo,
ik weet dat hij er al op staat maar je kan hem ook anders spelen:
bijv.

e--0--3--5----0--3--6-5----0--3--5--3--0
B--------------------------------------------------
G--------------------------------------------------
D--------------------------------------------------
A--------------------------------------------------
E--------------------------------------------------

en zo kan je dat ook op alle snaren doen!
de A vind ik zelf het mooiste.

maar je kan hem ook zo doen

e--6--9--11----6--9--12-11----6--9--11--9--6--
B-------------------------------------------------------------
G-------------------------------------------------------------
D-------------------------------------------------------------
A-------------------------------------------------------------
E-------------------------------------------------------------

en dat kan ook op alle snaren!
en alweer vind ik het op de A nog het mooist klinken.

en dan ook nog zoals die er al staat!

e-----------------------------------------------------
B-----------------------------------------------------
G--0--3--5----0--3--6-5----0--3--5--3--0--
D--0--3--5----0--3--6-5----0--3--5--3--0--
A-----------------------------------------------------
E-----------------------------------------------------

deze kan je ook op de snaren: e & B, B & G, D & A, A & E
spelen
maar ook weer : 6 9 11 6 9 12 11 6 9 11 9 6

graag gedaan!

ProTabs promo.jpg

Onbeperkt en gratis toegang tot alle 25.000
Tabs & Chords en direct meespelen met

Artiest Liedje

...

Gitaarakkoorden deep purple. - Smoke on the water (allemaal variaties)

Dankzij de bladmuziek op deze pagina wordt het een stuk makkelijker om met de gitaar mee te spelen met Smoke on the water (allemaal variaties) van deep purple. De ProTabs van Gitaartabs worden door onze professionele gitaardocenten samengesteld. De tabs en chords zijn door leden zelf geplaatst. Deze undefined van deep purple. met Smoke on the water (allemaal variaties) is voor je geschreven door jordy323

Tabs & Chords van deep purple. - Smoke on the water (allemaal variaties)

Bij de ProTabs delen we niet alleen de tablatuur maar ook de speelwijze van Smoke on the water (allemaal variaties) Met een beetje gitaar ervaring moet je dit gitaarliedje zeker kunnen spelen, maar als het niet lukt zijn we er altijd om je te helpen. Door een gratis account aan te maken krijg je niet alleen toegang tot deze tab ,akkoorden & tabs van Smoke on the water (allemaal variaties) maar kun je ook onbeperkt meespelen met een van de meer dan 25.000 andere tabs & chords in onze database.

Plaats opmerking

Beoordeel deze song

Rate UsDon’t love itNot greatGoodGreatLove itRate Us

Bedankt voor je beoordeling!