Change

Gitaarliedjes, tabs & akkoorden (chords) Change - deftones

Songtype: Tab

arrow&v

Markeer als favoriet

Favoriet

Gemarkeerd als favoriet

Capo:

0

deftones

deftones

Song
Album
Categorie

Change

Downloads
1246
Niveau
1

Geplaatst door
gitaartabs
ProTabs-promo.jpg

[e] -
[b] -
[g] -
[c] -down 2 notes
[g] -down 2 notes
[c] -down 4 notes

for rhythem listen to song

key: # ghost note
/ bend up
~ vibrato
+ keep playing note

this song is played real odd, maybe it's because chine can't play guitar very well :P
listen to the song to figure out how and when to strike the notes

[couplet]
e||--------------------------------
b||--------------------------------
g||---8----------------------------
c||---7-----------5-8-7-8-87-7-----
g||---8-----------5-+-+-+-++-+-----
c||---0-----------5-+-+-+-++-+-----


[refr]
e||--------------------------------
b||--------------------------------
g||--------------------------------
c||---0------------9---------------
g||---0------------8--------------- simple huh?
c||---0------------8---------------


[bridge]
e||--------------------------------
b||--------------------------------
g||--------------------------------
c||---3------------0---------------
g||---3------------0---------------
c||---3------------0---------------

ProTabs promo.jpg

Onbeperkt en gratis toegang tot alle 25.000
Tabs & Chords en direct meespelen met

Artiest Liedje

...

Gitaarakkoorden deftones - Change

Dankzij de bladmuziek op deze pagina wordt het een stuk makkelijker om met de gitaar mee te spelen met Change van deftones De ProTabs van Gitaartabs worden door onze professionele gitaardocenten samengesteld. De tabs en chords zijn door leden zelf geplaatst. Deze undefined van deftones met Change is voor je geschreven door gitaartabs

Tabs & Chords van deftones - Change

Bij de ProTabs delen we niet alleen de tablatuur maar ook de speelwijze van Change Met een beetje gitaar ervaring moet je dit gitaarliedje zeker kunnen spelen, maar als het niet lukt zijn we er altijd om je te helpen. Door een gratis account aan te maken krijg je niet alleen toegang tot deze tab ,akkoorden & tabs van Change maar kun je ook onbeperkt meespelen met een van de meer dan 25.000 andere tabs & chords in onze database.

Plaats opmerking

Verstuur

Beoordeel deze song

Rate UsDon’t love itNot greatGoodGreatLove itRate Us

Bedankt voor je beoordeling!