Elite

Gitaarliedjes, tabs & akkoorden (chords) Elite - deftones

Songtype: Tab

arrow&v

Markeer als favoriet

Favoriet

Gemarkeerd als favoriet

Capo:

0

deftones

deftones

Song
Album
Categorie

Elite

Downloads
878
Niveau
1
Geplaatst door
gitaartabs
ProTabs-promo.jpg

[e] -
[b] -
[g] -
[c] -down 2 notes
[g] -down 2 notes
[c] -down 4 notes

for rhythem listen to song

key: # ghost note
/ bend up
~ vibrato
+ keep playing note

this song is played real odd, maybe it's because chine can't play guitar very well :P
listen to the song to figure out how and when to strike the notes

[riff a] "when you're ripe you'll bleed out of control"
e||---------------------------------------------
b||---------------------------------------------
g||---------------------------------------------
c||---0-2-0-2-0-2-3-2---------------------------
g||---0-2-0-2-0-2-3-2---------------------------
c||---0-2-0-2-0-2-3-2- 3 times -> ---0-3---0-8--


[riff b] "you like attention it's proof to you you're alive"
e||---------------------------------------------
b||---------------------------------------------
g||---------------------------------------------
c||---------------------------------------------
g||---------------------------------------------
c||---0-2-0-2-0-2-3-2- 3 times -> ---0-3---0-8--


[riff c]
e||---------------------------------------------
b||--------------------3-----------3------------
g||--------------------2-----------2------------
c||---5-------0-2-0-2--2--0-2-0-2--2------------
g||---5-------0-2-0-2-----0-2-0-2---------------
c||---5-------0-2-0-2-----0-2-0-2---------------
(don't know if this part is good, i think the high notes are frasiolets)


[bridge]
e||---------------------------------------------
b||---------------------------------------------
g||---------------------------------------------
c||---------------------------------------------
g||-----------3-------------------3-------------
c||---0-2-0-2---2-0-2-----0-2-0-2---2-0-2-------

ProTabs promo.jpg

Onbeperkt en gratis toegang tot alle 25.000
Tabs & Chords en direct meespelen met

Artiest Liedje

...

Gitaarakkoorden deftones - Elite

Dankzij de bladmuziek op deze pagina wordt het een stuk makkelijker om met de gitaar mee te spelen met Elite van deftones De ProTabs van Gitaartabs worden door onze professionele gitaardocenten samengesteld. De tabs en chords zijn door leden zelf geplaatst. Deze undefined van deftones met Elite is voor je geschreven door gitaartabs

Tabs & Chords van deftones - Elite

Bij de ProTabs delen we niet alleen de tablatuur maar ook de speelwijze van Elite Met een beetje gitaar ervaring moet je dit gitaarliedje zeker kunnen spelen, maar als het niet lukt zijn we er altijd om je te helpen. Door een gratis account aan te maken krijg je niet alleen toegang tot deze tab ,akkoorden & tabs van Elite maar kun je ook onbeperkt meespelen met een van de meer dan 25.000 andere tabs & chords in onze database.

Plaats opmerking

Beoordeel deze song

Rate UsDon’t love itNot greatGoodGreatLove itRate Us

Bedankt voor je beoordeling!