Feiticeira

Gitaarliedjes, tabs & akkoorden (chords) Feiticeira - deftones

Songtype: Tab

arrow&v

Markeer als favoriet

Favoriet

Gemarkeerd als favoriet

Capo:

0

deftones

deftones

Song
Album
Categorie

Feiticeira

Downloads
290
Niveau
2
Geplaatst door
gitaartabs
ProTabs-promo.jpg

[e] -
[b] -
[g] -
[c] -down 2 notes
[g] -down 2 notes
[c] -down 4 notes

i dont know it for sure, but i'm having NO problem with playing all the songs of the album that way...
i use the same tuning in my band, it gives a real powerfull effect, and you can get some pretty neat chords out of it too!

for rhythm listen to the song

key: # ghost note
/ bend up
~ vibrato




[riff a]
e||--------------------------------
b||--------------------------------
g||--9-----4-5-4-5-----8-9---------
c||--------------------------------
g||--9-----4-5-4-5-----8-9---------
c||--------------------------------


[main] "stop i'm drunk but i'm off my knees..."
e||--------------------------------
b||--------------------------------
g||--------------------------------
c||--0--11---------0-8-0-4-0-------
g||--0--11---------0-8-0-4-0-------
c||--0--11---------0-8-0-4-0-------


[riff b]
e||--------------------------------
b||-----------4--------------------
g||--8--8/----4--------------------
c||--------------------------------
g||--8--8/----4--------------------
c||--------------------------------

[riff c]

e||--------------------------------
b||--------------------------------
g||--------------------------------
c||--10---------6------------------
g||--8----------4------------------
c||--------------------------------

ProTabs promo.jpg

Onbeperkt en gratis toegang tot alle 25.000
Tabs & Chords en direct meespelen met

Artiest Liedje

...

Gitaarakkoorden deftones - Feiticeira

Dankzij de bladmuziek op deze pagina wordt het een stuk makkelijker om met de gitaar mee te spelen met Feiticeira van deftones De ProTabs van Gitaartabs worden door onze professionele gitaardocenten samengesteld. De tabs en chords zijn door leden zelf geplaatst. Deze undefined van deftones met Feiticeira is voor je geschreven door gitaartabs

Tabs & Chords van deftones - Feiticeira

Bij de ProTabs delen we niet alleen de tablatuur maar ook de speelwijze van Feiticeira Met een beetje gitaar ervaring moet je dit gitaarliedje zeker kunnen spelen, maar als het niet lukt zijn we er altijd om je te helpen. Door een gratis account aan te maken krijg je niet alleen toegang tot deze tab ,akkoorden & tabs van Feiticeira maar kun je ook onbeperkt meespelen met een van de meer dan 25.000 andere tabs & chords in onze database.

Plaats opmerking

Beoordeel deze song

Rate UsDon’t love itNot greatGoodGreatLove itRate Us

Bedankt voor je beoordeling!