Holy diver

Gitaarliedjes, tabs & akkoorden (chords) Holy diver - dio

Songtype: Tab

arrow&v

Markeer als favoriet

Favoriet

Gemarkeerd als favoriet

Capo:

0

dio

dio

Song
Album
Categorie

Holy diver

Downloads
1612
Niveau
2
holy diver

Geplaatst door
sinn
ProTabs-promo.jpg

Intro/Refrein
E|----------------------------------------------------------------------|
B|----------------------------------------------------------------------|
G|--5-xx-5-xx-5-7-8------5-xx-5--5/7/8--3------5-xx-5--5/7/8--3---5-3-5-|
D|--5-xx-5-xx-5-7-8------5-xx-5--5/7/8--3------5-xx-5--5/7/8--3---5-3-5-|
A|--3-xx-3-xx-3-5-6------3-xx-3--3/5/6--1------3-xx-3--3/5/6--1---3-1-3-|
E|----------------------------------------------------------------------|

E|-----------------------------------------------------------------------------|
B|-----------------------------------------------------------------------------|
G|--5-xx-5-xx-5-7-8------5-xx-5--5/7/8--3------5-xx-5--5/7/8--3---5-3------3-5-|
D|--5-xx-5-xx-5-7-8------5-xx-5--5/7/8--3------5-xx-5--5/7/8--3---5-3-6~---3-5-|
A|--3-xx-3-xx-3-5-6------3-xx-3--3/5/6--1------3-xx-3--3/5/6--1---3-1-6~---1-3-|
E|--------------------------------------------------------------------4~-------|


Couplet
E|---------------------------------------|
B|---------------------------------------|
G|--5-xx-5-xx-5-xx-5-xx-5-xx-5-xx-5-xx---|
D|--5-xx-5-xx-5-xx-5-xx-5-xx-5-xx-5-xx-6-|
A|--3-xx-3-xx-3-xx-3-xx-3-xx-3-xx-3-xx-6-|
E|-------------------------------------4-|

E|------------------------------------------|
B|------------------------------------------|
G|--5-xx-5-xx-3-xx-3-xx---------------------|
D|--5-xx-5-xx-3-xx-3-xx-6-xx-6-xx-6-xx-6-xx-|
A|--3-xx-3-xx-1-xx-1-xx-6-xx-6-xx-6-xx-6-xx-|
E|----------------------4-xx-4-xx-4-xx-4-xx-|

E|-------------------------------------|
B|-------------------------------------|
G|--5-xx-5-xx-5-xx-5-xx-5-xx-5-xx-5----|
D|--5-xx-5-xx-5-xx-5-xx-5-xx-5-xx-5--6-|
A|--3-xx-3-xx-3-xx-3-xx-3-xx-3-xx-3--6-|
E|-----------------------------------4-|

E|------------------------------------------|
B|------------------------------------------|
G|--5-xx-5-xx-3-xx-3-xx-5-xx-5-xx-5-xx-5-xx-|
D|--5-xx-5-xx-3-xx-3-xx-5-xx-5-xx-5-xx-5-xx-|
A|--3-xx-3-xx-1-xx-1-xx-3-xx-3-xx-3-xx-3-xx-|
E|------------------------------------------|

Brug (speel 2 keer)
E|------------------------------|
B|------------------------------|
G|--2---5--5----3--3------------|
D|--2---5--5----3--3--6--6----6-|
A|--0---3--3----1--1--6--6----6-|
E|--------------------4--4----4-|


Text:
Hmm hmm hmm hmm hmm yeah yeah

Holy diver you've been down too long in the midnight sea
oh what's becoming of me

Ride the tiger you can see his stripes but you know he's clean
oh don't you see what I mean

Gotta get away holy diver yeah

Got shiny diamonds like the eyes of a cat in the black and blue
something is coming for you

look out

Race for the morning you can hide in the sun 'till you see the light
oh we will pray it's all right

Gotta get away get away

Between the velvet lies
there's a truth that's hard as steel yeah

The vision never dies
life's a never ending wheel say

Holy diver you're the star of the masquerade
no need to look so afraid

jump jump jump on the tiger you can feel his heart but you know he's mean
some light can never be seen yeah

Holy diver you've been down too long in the midnight sea
oh what's becoming of me

no no

Ride the tiger you can see his stripes but you know he's clean
oh don't you see what I mean
Gotta get away get away gotta get away get away

Holy diver sole survivor your honour's clean
Holy diver holy diver never cut in the middle comin' after you holy diver
Oh holy diver yeah alright get away get away get away
Holy diver holy diver whoa holy diver hmm hmm hmm hmm

ProTabs promo.jpg

Onbeperkt en gratis toegang tot alle 25.000
Tabs & Chords en direct meespelen met

Artiest Liedje

...

Gitaarakkoorden dio - Holy diver

Dankzij de bladmuziek op deze pagina wordt het een stuk makkelijker om met de gitaar mee te spelen met Holy diver van dio De ProTabs van Gitaartabs worden door onze professionele gitaardocenten samengesteld. De tabs en chords zijn door leden zelf geplaatst. Deze undefined van dio met Holy diver is voor je geschreven door sinn

Tabs & Chords van dio - Holy diver

Bij de ProTabs delen we niet alleen de tablatuur maar ook de speelwijze van Holy diver Met een beetje gitaar ervaring moet je dit gitaarliedje zeker kunnen spelen, maar als het niet lukt zijn we er altijd om je te helpen. Door een gratis account aan te maken krijg je niet alleen toegang tot deze tab ,akkoorden & tabs van Holy diver maar kun je ook onbeperkt meespelen met een van de meer dan 25.000 andere tabs & chords in onze database.

Plaats opmerking

Verstuur

Beoordeel deze song

Rate UsDon’t love itNot greatGoodGreatLove itRate Us

Bedankt voor je beoordeling!