Hero

Gitaarliedjes, tabs & akkoorden (chords) Hero - enrique iglesias

Songtype: Tab

arrow&v

Markeer als favoriet

Favoriet

Gemarkeerd als favoriet

Capo:

0

enrique iglesias

enrique iglesias

Song
Album
Categorie

Hero

Downloads
1075
Niveau
2

Geplaatst door
ilse136
ProTabs-promo.jpg

Hero - enrique iglesias

G 320033
Cadd9 x32033
D xx0232
C x32010




Intro / couplet)
e-----3------3------------3--------3----------3-------3------------3-------
B-------3------3------------3-------3-----------3-------3------------3-----
G---------0------0------------0------0------------0-------0------------2~--
D-------------------------------------------------------------0------------
A-----------------------------------------3--------------------------------
E-3-------------------0----------------------------------------------------
G Em7 Cadd9 Dsus


Would you dance if I asked you to dance
Would you run and never look back
Would you cry if you saw me crying
Would you save my soul to night

Would you tremble if I touched your lips
Would you laugh oh please tell me this
Now would you die for the one you love
Hold me in your arms to night


[Refrein]

G D Cadd9
I can be your hero baby
G D Cadd9
I can kiss away the pain
G D Cadd9
I will stand by you forever
G D Cadd9
You can take my breath away


[Verse2]

Would you swear that you'll always be mine
Would you lie would you run and hide
Am I in too deep have I lost my mind
Well I don't care you're here to night


G Dsus Cadd9
I can be your hero baby
G Dsus Cadd9
I can kiss away the pain
G Dsus Cadd9
I will stand by you forever
G Dsus Cadd9
You can take my breath away

Solo :

e--------------------------------------------------------------------
B----------------------------7-------7-8-7---------------------------
G-------------4-5~----7~7~7~--7~~----------7-------------7~----------
D-5-5-5-7-9-9~-------------------------------7h9----7h5--------------
A--------------------------------------------------------------------
E--------------------------------------------------------------------



Oh I just wanna hold you,
I just wanna hold you, oh yeah
Am I in too deep have I lost my mind
Well I don't care you're here to night


[Chorus]
G Dsus Cadd9
I can be your hero baby
G Dsus Cadd9
I can kiss away the pain OH YEAH!
G Dsus Cadd9
I will stand by you forever
G Dsus Cadd9
You can take my breath away


G Dsus Cadd9
I can BE your HERO
G Dsus Cadd9
I can kiss away the pain
G Dsus Cadd9
I WILL STAND BY YOU FOREVER


G Dsus Cadd9
You can take my breath away
G Dsus Cadd9
You can take my breath away
G D C
And I can be your hero

ProTabs promo.jpg

Onbeperkt en gratis toegang tot alle 25.000
Tabs & Chords en direct meespelen met

Artiest Liedje

...

Gitaarakkoorden enrique iglesias - Hero

Dankzij de bladmuziek op deze pagina wordt het een stuk makkelijker om met de gitaar mee te spelen met Hero van enrique iglesias De ProTabs van Gitaartabs worden door onze professionele gitaardocenten samengesteld. De tabs en chords zijn door leden zelf geplaatst. Deze undefined van enrique iglesias met Hero is voor je geschreven door ilse136

Tabs & Chords van enrique iglesias - Hero

Bij de ProTabs delen we niet alleen de tablatuur maar ook de speelwijze van Hero Met een beetje gitaar ervaring moet je dit gitaarliedje zeker kunnen spelen, maar als het niet lukt zijn we er altijd om je te helpen. Door een gratis account aan te maken krijg je niet alleen toegang tot deze tab ,akkoorden & tabs van Hero maar kun je ook onbeperkt meespelen met een van de meer dan 25.000 andere tabs & chords in onze database.

Plaats opmerking

Verstuur

Beoordeel deze song

Rate UsDon’t love itNot greatGoodGreatLove itRate Us

Bedankt voor je beoordeling!