Iron

Gitaarliedjes, tabs & akkoorden (chords) iron - ensiferum

Songtype: Tab

arrow&v

Markeer als favoriet

Favoriet

Gemarkeerd als favoriet

Capo:

0

ensiferum

ensiferum

Song
Album
Categorie

iron

Downloads
8
Niveau
2
iron

Geplaatst door
koenibald
ProTabs-promo.jpg

Iron


Ensiferum
Rhythm Guitar



PM PM PM PM PM PM PM PM PM PM
Q S S S S Q S S S S Q E E Q E E
E||------------------------------------|------------------------|
B||------------------------------------|------------------------|
G||-------------------4----------------|-------5-----5----------|
D||--2----------------4----------------|--5----5-----5----5--5--|
A||--2----------------2----------------|--5----3-----3----3--3--|
E||--0----0--0--0--0-------0--0--0--0--|--3---------------------|


PM PM
E E H. H Q E E E E H.
---------------------|----------------------|---------------------|
---------------------|----------------------|---------------------|
--7------------------|----------------------|---------------------|
--7------------------|----------------------|--2------------------|
--5------------------|----------------5--4--|--2------------------|
---------------------|----------------3--2--|--0------------------|


PM PM
E E E E H E E E E H
---------------|-----------------------|-----------------------|
---------------|-----------------------|-----------------------|
---------------|--7-----7-----7--------|--9-----9-----9--------|
---------------|--7-----7--5--7--------|--9-----9--7--9--------|
---------------|--5-----5--3--5--------|--7-----7--5--7--------|
---------------|-----------------------|-----------------------|


PM PM PM PM PM PM PM PM PM PM PM PM
Q S S S S Q S S S S Q E E Q S S S S
------------------------------------|------------------------------|
------------------------------------|------------------------------|
-------------------4----------------|-------5-----5----------------|
--2----------------4----------------|--5----5-----5----------------|
--2----------------2----2--2--2--2--|--5----3-----3----3--3--3--3--|
--0----0--0--0--0-------------------|--3---------------------------|


PM PM PM PM PM PM
E E E E Q S S S S E E E E H
-------------------------------|-----------------------|
-------------------------------|-----------------------|
--7-----7-----7----------------|--9-----9-----9--------|
--7-----7--5--7----------------|--9-----9--7--9--------|
--5-----5--3--5----5--5--5--5--|--7-----7--5--7--------|
-------------------------------|-----------------------|


PM PM PM PM PM PM PM PM PM PM PM PM
Q S S S S Q S S S S Q E E Q S S S S
------------------------------------|------------------------------|
------------------------------------|------------------------------|
-------------------4----------------|-------5-----5----------------|
--2----------------4----------------|--5----5-----5----------------|
--2----------------2----2--2--2--2--|--5----3-----3----3--3--3--3--|
--0----0--0--0--0-------------------|--3---------------------------|


PM PM PM PM PM PM
E E E E Q S S S S E E E E H
--------------------------------|-----------------------|
--------------------------------|-----------------------|
--7-----7-----------------------|--9-----9-----9--------|
--7-----7------9----------------|--9-----9--7--9--------|
--5-----5--10--9----------------|--7-----7--5--7--------|
------------8--7----7--7--7--7--|-----------------------|


PM PM PM PM PM PM PM PM PM PM PM PM
Q S S S S Q S S S S Q E E Q S S S S
------------------------------------|------------------------------|
------------------------------------|------------------------------|
-------------------4----------------|-------5-----5----------------|
--2----------------4----------------|--5----5-----5----------------|
--2----------------2----2--2--2--2--|--5----3-----3----3--3--3--3--|
--0----0--0--0--0-------------------|--3---------------------------|


PM PM PM PM PM PM
E E E E Q S S S S E E E E H
-------------------------------|-----------------------|
-------------------------------|-----------------------|
--7-----7-----7----------------|--9-----9-----9--------|
--7-----7--5--7----------------|--9-----9--7--9--------|
--5-----5--3--5----5--5--5--5--|--7-----7--5--7--------|
-------------------------------|-----------------------|


PM PM PM PM PM PM PM PM PM PM PM PM
Q S S S S Q S S S S Q E E Q S S S S
------------------------------------|------------------------------|
------------------------------------|------------------------------|
--9---------------------------------|-------5-----5----------------|
--9----------------9----------------|--5----5-----5----------------|
--7----------------9----------------|--5----3-----3----3--3--3--3--|
-------0--0--0--0--7----7--7--7--7--|--3---------------------------|


PM PM PM PM PM PM
E E E E Q S S S S E E E E H
--------------------------------|-----------------------|
--------------------------------|-----------------------|
--7-----7-----------------------|--9-----9-----9--------|
--7-----7------9----------------|--9-----9--7--9--------|
--5-----5--10--9----------------|--7-----7--5--7--------|
------------8--7----7--7--7--7--|-----------------------|


PM PM PM PM PM PM PM PM PM PM PM PM PM PM PM PM PM PM PM PM PM PM PM
E S S E S S E S S E S S E S S E S S E S S E S S
--------------------------------------|--------------------------------------|
--------------------------------------|--------------------------------------|
--------------------------------------|--------------------------------------|
--2-----------------------------------|--------------------------------------|
--2-----------------------------------|--------------------------------------|
--0--0--0--0--0--0--0--0--0--0--0--0--|--0--0--0--0--0--0--0--0--0--0--0--0--|


PM PM PM PM PM PM PM PM PM PM PM PM PM PM PM PM PM PM
E S S E S S E S S E S S E S S E S S E S S Q
--------------------------------------|----------------------------------|
--------------------------------------|----------------------------------|
--------------------------------------|--5-------------------------------|
--5-----------------7-----------------|--5--------------------------5----|
--5-----------------7-----------------|--3--3--3--3--3--3--3--3--3--5----|
--3--3--3--3--3--3--5--5--5--5--5--5--|-----------------------------3----|


PM PM PM PM PM PM PM PM PM PM PM PM PM PM PM PM PM PM PM PM PM PM PM
E S S E S S E S S E S S E S S E S S E S S E S S
--------------------------------------|--------------------------------------|
--------------------------------------|--------------------------------------|
--------------------------------------|--------------------------------------|
--2-----------------------------------|--------------------------------------|
--2-----------------------------------|--------------------------------------|
--0--0--0--0--0--0--0--0--0--0--0--0--|--0--0--0--0--0--0--0--0--0--0--0--0--|


PM PM PM PM PM PM PM PM PM PM PM PM PM PM PM PM PM PM
E S S E S S E S S E S S E S S E S S E S S Q
--------------------------------------|----------------------------------|
--------------------------------------|----------------------------------|
--------------------------------------|--7--------------------------4----|
--5-----------------7-----------------|--7--------------------------4----|
--5-----------------7-----------------|--5--5--5--5--5--5--5--5--5--2----|
--3--3--3--3--3--3--5--5--5--5--5--5--|----------------------------------|


PM PM PM PM PM PM PM PM PM PM PM PM PM PM PM PM PM PM PM PM PM PM PM
E S S E S S E S S E S S E S S E S S E S S E S S
--------------------------------------|--------------------------------------|
--------------------------------------|--------------------------------------|
--------------------------------------|--------------------------------------|
--2-----------------------------------|--------------------------------------|
--2-----------------------------------|--------------------------------------|
--0--0--0--0--0--0--0--0--0--0--0--0--|--0--0--0--0--0--0--0--0--0--0--0--0--|


PM PM PM PM PM PM PM PM PM PM PM PM PM PM PM PM PM PM
E S S E S S E S S E S S E S S E S S E S S Q
--------------------------------------|----------------------------------|
--------------------------------------|----------------------------------|
--------------------------------------|--5--------------------------7----|
--5-----------------7-----------------|--5--------------------------7----|
--5-----------------7-----------------|--3--3--3--3--3--3--3--3--3--5----|
--3--3--3--3--3--3--5--5--5--5--5--5--|----------------------------------|


PM PM PM PM PM PM PM PM PM PM PM PM PM PM PM PM PM PM PM PM PM PM PM
E S S E S S E S S E S S E S S E S S E S S E S S
--------------------------------------|--------------------------------------|
--------------------------------------|--------------------------------------|
--------------------------------------|--------------------------------------|
--2-----------------------------------|--------------------------------------|
--2-----------------------------------|--------------------------------------|
--0--0--0--0--0--0--0--0--0--0--0--0--|--0--0--0--0--0--0--0--0--0--0--0--0--|


PM PM PM PM
H H E E E E E E E E Q E E Q E E
--------------------|--------------------------|------------------------|
--------------------|--------------------------|------------------------|
--------------------|--------------------------|-------------4----------|
--5--------7--------|--9--9--9--9--9--9--9--9--|--2----------4----------|
--5--------7--------|--9--9--9--9--9--9--9--9--|--2----------2----2--2--|
--3--------5--------|--7--7--7--7--7--7--7--7--|--0----0--0-------------|


PM PM PM PM PM PM
Q E E Q E E E E E E Q E E E E E E H
------------------------|-------------------------|-----------------------|
------------------------|-------------------------|-----------------------|
-------5-----5----------|--7-----7-----7----------|--9-----9-----9--------|
--5----5-----5----------|--7-----7--5--7----------|--9-----9--7--9--------|
--5----3-----3----3--3--|--5-----5--3--5----5--5--|--7-----7--5--7--------|
--3---------------------|-------------------------|-----------------------|


PM PM PM PM PM PM PM
Q E E Q E E Q E E Q E E E E E E Q E E
------------------------|------------------------|--------------------------|
------------------------|------------------------|--------------------------|
-------------4----------|-------5-----5----------|--7-----7-----------------|
--2----------4----------|--5----5-----5----------|--7-----7------9----------|
--2----------2----2--2--|--5----3-----3----3--3--|--5-----5--10--9----------|
--0----0--0-------------|--3---------------------|------------8--7----7--7--|


PM PM PM PM PM PM PM
E E E E H Q E E Q E E E E E E Q E E
-----------------------|------------------------|-------------------------|
-----------------------|------------------------|-------------------------|
--9-----9-----9--------|-------------7----------|--------------5----------|
--9-----9--7--9--------|--9----------7----------|--9--7--5-----5----------|
--7-----7--5--7--------|--9----------5----5--5--|--7--5--3-----3----3--3--|
-----------------------|--7----7--7-------------|-------------------------|


PM PM PM PM PM PM PM PM PM PM
E E E E Q Q E E E E H Q E E Q E E
------------------------|-----------------------|------------------------|
------------------------|-----------------------|------------------------|
-------------------7----|--------------9--------|-------------7----------|
--------------9----7----|--9-----9--7--9--------|--9----------7----7--7--|
--9-----9--7--9----5----|--7-----7--5--7--------|--9----9--9--5----5--5--|
--7-----7--5--7---------|-----------------------|--7----7--7-------------|


PM PM PM PM PM PM
E E E E Q E E Q E E Q E E E E E E Q E E
-------------------------|-------------------------|-------------------------|
-------------------------|-------------------------|-------------------------|
--------------7----------|-------------------------|--9-----9-----9----------|
--5--7--9-----7----7--7--|-------7--10--9----------|--9-----9--7--9----9--9--|
--3--5--7-----5----5--5--|-------5--10--9----9--9--|--7-----7--5--7----7--7--|
-------------------------|-----------8--7----7--7--|-------------------------|


PM PM PM PM PM PM PM PM PM PM PM PM PM
E S S E S S E S S Q E S S E S S Q Q
----------------------------------|------------------------------|
----------------------------------|------------------------------|
-----------------------------2----|--4-----------------4----4----|
--5--------------------------2----|--4-----------------4----4----|
--5--------------------------0----|--2--2--2--2--2--2--2----2----|
--3--3--3--3--3--3--3--3--3-------|------------------------------|


PM PM PM PM PM PM PM PM PM PM
E S S E S S E S S E S S
--------------------------------------|
--------------------------------------|
--------------------------------------|
--5-----------------7-----------------|
--5-----------------7-----------------|
--3--3--3--3--3--3--5--5--5--5--5--5--|


PM PM PM PM PM PM PM PM PM PM PM PM PM PM PM PM PM PM PM PM PM
E S S E S S S S S S S S S S E S S E S S E S S Q
--------------------------------------------|----------------------------------|
--------------------------------------------|----------------------------------|
--9-----------------------------------------|-----------------------------2----|
--9-----------------------------------------|--5--------------------------2----|
--7--7--7--7--7--7--7--7--7--7--7--7--7--7--|--5--------------------------0----|
--------------------------------------------|--3--3--3--3--3--3--3--3--3-------|


PM PM PM PM PM PM PM PM PM PM PM PM PM PM PM
E S S E S S Q Q E S S E S S E S S E S S
------------------------------|--------------------------------------|
------------------------------|--------------------------------------|
--4-----------------4----4----|--------------------------------------|
--4-----------------4----4----|--5-----------------4-----------------|
--2--2--2--2--2--2--2----2----|--5-----------------5-----------------|
------------------------------|--3--3--3--3--3--3--2--2--2--2--2--2--|


W W W
-------------------|-------------------|-------------------|
-------------------|-------------------|-------------------|
-------------------|--2----------------|--4----------------|
--2----------------|--2----------------|--4----------------|
--2----------------|--0----------------|--2----------------|
--0----------------|-------------------|-------------------|


PM PM PM PM PM PM PM PM PM PM PM PM
E S S S S S S E S S S S S S
--------------------------------------------|
--------------------------------------------|
-----------------------5--------------------|
--5--------------------5--------------------|
--5--------------------3--3--3--3--3--3--3--|
--3--3--3--3--3--3--3-----------------------|


PM PM PM PM PM PM PM PM PM PM PM PM PM PM
E S S S S S S S S S S S S S S W
-----------------------------------------------|-------------------|
-----------------------------------------------|-------------------|
--4--------------------------------------------|--2----------------|
--4--------------------------------------------|--2----------------|
--2--2--2--2--2--2--2--2--2--2--2--2--2--2--2--|--0----------------|
-----------------------------------------------|-------------------|


PM PM PM PM PM PM PM PM PM PM PM PM
W E S S S S S S E S S S S S S
-------------------|--------------------------------------------|
-------------------|--------------------------------------------|
--4----------------|--------------------------------------------|
--4----------------|--5--------------------7--------------------|
--2----------------|--5--------------------7--------------------|
-------------------|--3--3--3--3--3--3--3--5--5--5--5--5--5--5--|


W E E E E E E Q
-------------------|-------------------------|
-------------------|-------------------------|
-------------------|-------------------------|
--9----------------|--9--9--9--9--9--9-------|
--9----------------|--9--9--9--9--9--9-------|
--7----------------|--7--7--7--7--7--7-------|


PM PM PM PM PM PM PM PM PM PM PM PM PM PM PM PM PM PM PM PM PM PM PM
E S S E S S E S S E S S E S S E S S E S S E S S
--------------------------------------|--------------------------------------|
--------------------------------------|--------------------------------------|
--------------------------------------|--------------------------------------|
--2-----------------------------------|--------------------------------------|
--2-----------------------------------|--------------------------------------|
--0--0--0--0--0--0--0--0--0--0--0--0--|--0--0--0--0--0--0--0--0--0--0--0--0--|


PM PM PM PM PM PM PM PM PM PM PM PM PM PM PM PM PM PM
E S S E S S E S S E S S E S S E S S E S S Q
--------------------------------------|----------------------------------|
--------------------------------------|----------------------------------|
--------------------------------------|--5-------------------------------|
--5-----------------7-----------------|--5--------------------------5----|
--5-----------------7-----------------|--3--3--3--3--3--3--3--3--3--5----|
--3--3--3--3--3--3--5--5--5--5--5--5--|-----------------------------3----|


PM PM PM PM PM PM PM PM PM PM PM PM PM PM PM PM PM PM PM PM PM PM PM
E S S E S S E S S E S S E S S E S S E S S E S S
--------------------------------------|--------------------------------------|
--------------------------------------|--------------------------------------|
--------------------------------------|--------------------------------------|
--2-----------------------------------|--------------------------------------|
--2-----------------------------------|--------------------------------------|
--0--0--0--0--0--0--0--0--0--0--0--0--|--0--0--0--0--0--0--0--0--0--0--0--0--|


PM PM PM PM PM PM PM PM PM PM PM PM PM PM PM PM PM PM
E S S E S S E S S E S S E S S E S S E S S Q
--------------------------------------|----------------------------------|
--------------------------------------|----------------------------------|
--------------------------------------|--7--------------------------4----|
--5-----------------7-----------------|--7--------------------------4----|
--5-----------------7-----------------|--5--5--5--5--5--5--5--5--5--2----|
--3--3--3--3--3--3--5--5--5--5--5--5--|----------------------------------|


PM PM PM PM PM PM PM PM PM PM PM PM PM PM PM PM PM PM PM PM PM PM PM
E S S E S S E S S E S S E S S E S S E S S E S S
--------------------------------------|--------------------------------------|
--------------------------------------|--------------------------------------|
--------------------------------------|--------------------------------------|
--2-----------------------------------|--------------------------------------|
--2-----------------------------------|--------------------------------------|
--0--0--0--0--0--0--0--0--0--0--0--0--|--0--0--0--0--0--0--0--0--0--0--0--0--|


Q Q H Q H Q
---------------------|---------------------|
---------------------|---------------------|
-------2----4--------|--2------------------|
--5----2----4--------|--2----2--------4----|
--5----0----2--------|--0----2--------4----|
--3------------------|-------0--------2----|


PM PM PM PM PM PM PM PM PM PM PM PM PM PM PM PM PM PM PM PM PM PM PM
E S S E S S E S S E S S E S S E S S E S S E S S
--------------------------------------|--------------------------------------|
--------------------------------------|--------------------------------------|
--------------------------------------|--------------------------------------|
--2-----------------------------------|--------------------------------------|
--2-----------------------------------|--------------------------------------|
--0--0--0--0--0--0--0--0--0--0--0--0--|--0--0--0--0--0--0--0--0--0--0--0--0--|


PM PM PM PM PM PM PM PM PM PM
E S S E S S E S S E S S E E E E E E E E
--------------------------------------|--------------------------|
--------------------------------------|--------------------------|
--------------------------------------|--------------------------|
--5-----------------7-----------------|--9--9--9--9--9--9--9--9--|
--5-----------------7-----------------|--9--9--9--9--9--9--9--9--|
--3--3--3--3--3--3--5--5--5--5--5--5--|--7--7--7--7--7--7--7--7--|


PM PM PM PM PM PM PM PM PM PM PM PM
Q S S S S Q S S S S Q E E Q S S S S
------------------------------------|------------------------------|
------------------------------------|------------------------------|
-------------------4----------------|-------5-----5----------------|
--2----------------4----------------|--5----5-----5----------------|
--2----------------2----2--2--2--2--|--5----3-----3----3--3--3--3--|
--0----0--0--0--0-------------------|--3---------------------------|


PM PM PM PM PM PM
E E E E Q S S S S E E E E H
-------------------------------|-----------------------|
-------------------------------|-----------------------|
--7-----7-----7----------------|--9-----9-----9--------|
--7-----7--5--7----------------|--9-----9--7--9--------|
--5-----5--3--5----5--5--5--5--|--7-----7--5--7--------|
-------------------------------|-----------------------|


PM PM PM PM PM PM PM PM PM PM PM PM
Q S S S S Q S S S S Q E E Q S S S S
------------------------------------|------------------------------|
------------------------------------|------------------------------|
-------------------4----------------|-------5-----5----------------|
--2----------------4----------------|--5----5-----5----------------|
--2----------------2----2--2--2--2--|--5----3-----3----3--3--3--3--|
--0----0--0--0--0-------------------|--3---------------------------|


PM PM
E E E E Q S S S S E E E E H
----------------------------|-----------------------|
----------------------------|-----------------------|
--7-----7-------------------|--9-----9-----9--------|
--7-----7------9------------|--9-----9--7--9--------|
--5-----5--10--9------------|--7-----7--5--7--------|
------------8--7----7-7-7-7-|-----------------------|


PM PM PM PM PM PM PM PM PM PM PM PM
Q S S S S Q S S S S Q E E Q S S S S
------------------------------------|------------------------------|
------------------------------------|------------------------------|
-------------------4----------------|-------5-----5----------------|
--2----------------4----------------|--5----5-----5----------------|
--2----------------2----2--2--2--2--|--5----3-----3----3--3--3--3--|
--0----0--0--0--0-------------------|--3---------------------------|


PM PM PM PM PM PM
E E E E Q S S S S E E E E H
-------------------------------|-----------------------|
-------------------------------|-----------------------|
--7-----7-----7----------------|--9-----9-----9--------|
--7-----7--5--7----------------|--9-----9--7--9--------|
--5-----5--3--5----5--5--5--5--|--7-----7--5--7--------|
-------------------------------|-----------------------|


PM PM PM PM PM PM PM PM PM PM PM PM
Q S S S S Q S S S S Q E E Q S S S S
------------------------------------|------------------------------|
------------------------------------|------------------------------|
--9---------------------------------|-------5-----5----------------|
--9----------------9----------------|--5----5-----5----------------|
--7----------------9----------------|--5----3-----3----3--3--3--3--|
-------0--0--0--0--7----7--7--7--7--|--3---------------------------|


PM PM PM PM PM PM PM PM PM
E E E E Q S S S S E E E E H W
--------------------------------|-----------------------|-------------------|
--------------------------------|-----------------------|-------------------|
--7-----7-----------------------|-----------------------|-------------------|
--7-----7------9----------------|--------------9--------|--L----------------|
--5-----5--10--9----------------|--7--7--7--7--7--------|--L----------------|
------------8--7----7--7--7--7--|--0--0--0--0--0--------|--L----------------|


W W W
-------------------|-------------------|-------------------|
-------------------|-------------------|-------------------|
-------------------|-------------------|-------------------|
--L----------------|--L----------------|--L----------------|
--L----------------|--L----------------|--L----------------|
--L----------------|--L----------------|--L----------------|


W Q W W
------------------------|-------------------|-------------------|
------------------------|-------------------|-------------------|
-------------------L----|-------------------|-------------------|
--L----------------L----|--L----------------|--L----------------|
--L----------------L----|--L----------------|--L----------------|
--L----------------L----|--L----------------|--L----------------|


W
-------------------|-------------------|-------------------|-------------------|
-------------------|-------------------|-------------------|-------------------|
-------------------|-------------------|-------------------|-------------------|
--L----------------|-------------------|-------------------|-------------------|
--L----------------|-------------------|-------------------|-------------------|
--L----------------|-------------------|-------------------|-------------------|


-------------------|-------------------|-------------------|-------------------|
-------------------|-------------------|-------------------|-------------------|
-------------------|-------------------|-------------------|-------------------|
-------------------|-------------------|-------------------|-------------------|
-------------------|-------------------|-------------------|-------------------|
-------------------|-------------------|-------------------|-------------------|


-------------------|-------------------|-------------------|-------------------|
-------------------|-------------------|-------------------|-------------------|
-------------------|-------------------|-------------------|-------------------|
-------------------|-------------------|-------------------|-------------------|
-------------------|-------------------|-------------------|-------------------|
-------------------|-------------------|-------------------|-------------------|


PM PM PM PM PM PM PM PM PM PM PM
E S S E S S E S S E S S
-------------------|-------------------|--------------------------------------|
-------------------|-------------------|--------------------------------------|
-------------------|-------------------|--------------------------------------|
-------------------|-------------------|--4-----------------------------------|
-------------------|-------------------|--4-----------------------------------|
-------------------|-------------------|--2--2--2--2--2--2--5--2--2--4--5--2--|


PM PM PM PM PM PM PM PM PM PM PM PM PM PM PM PM PM PM PM PM PM PM
E S S E S S E S S E S S E S S E S S E S S E S S
--------------------------------------|--------------------------------------|
--------------------------------------|--------------------------------------|
--------------------------------------|--2-----------------------------------|
--4-----------------------------------|--2-----------------------------------|
--4-----------------------------------|--0--0--0--0--0--0--4--0--0--2--4--0--|
--2--2--2--2--2--2--5--2--2--4--5--2--|--------------------------------------|


PM PM PM PM PM PM PM PM PM PM PM PM PM
E S S E S S S S S S S S S S
--------------------------------------------|
--------------------------------------------|
--6-----------------------------------------|
--6-----------------------------------------|
--4--4--4--4--4--4--7--6--4--4--6--7--4--4--|
--------------------------------------------|


PM PM PM PM PM PM PM PM PM PM PM PM PM PM PM PM PM PM PM PM PM PM
E S S E S S E S S E S S E S S E S S E S S E S S
--------------------------------------|--------------------------------------|
--------------------------------------|--------------------------------------|
--------------------------------------|--------------------------------------|
--4-----------------------------------|--4-----------------------------------|
--4-----------------------------------|--4-----------------------------------|
--2--2--2--2--2--2--5--2--2--4--5--2--|--2--2--2--2--2--2--5--2--2--4--5--2--|


PM PM PM PM PM PM PM PM PM PM PM PM PM PM PM PM
E S S E S S E S S E S S E S S E S S Q Q
--------------------------------------|------------------------------|
--------------------------------------|------------------------------|
--2-----------------------------------|--6----------------------4----|
--2-----------------------------------|--6-----------------2----4----|
--0--0--0--0--0--0--4--0--0--2--4--0--|--4--4--4--4--4--4--2----2----|
--------------------------------------|--------------------0---------|


PM PM PM PM PM PM PM PM PM PM PM PM PM PM PM PM PM PM PM PM PM PM
E S S E S S E S S E S S E S S E S S E S S E S S
--------------------------------------|--------------------------------------|
--------------------------------------|--------------------------------------|
--------------------------------------|--------------------------------------|
--4-----------------------------------|--4-----------------------------------|
--4-----------------------------------|--4-----------------------------------|
--2--2--2--2--2--2--5--2--2--4--5--2--|--2--2--2--2--2--2--5--2--2--4--5--2--|


PM PM PM PM PM PM PM PM PM PM PM
E S S E S S E S S E S S
--------------------------------------|
--------------------------------------|
--2-----------------------------------|
--2-----------------------------------|
--0--0--0--0--0--0--4--0--0--2--4--0--|
--------------------------------------|


PM PM PM PM PM PM PM PM PM PM PM PM PM
E S S E S S S S S S S S S S
--------------------------------------------|
--------------------------------------------|
--6-----------------------------------------|
--6-----------------------------------------|
--4--4--4--4--4--4--7--6--4--4--6--7--4--4--|
--------------------------------------------|


PM PM PM PM PM PM PM PM PM PM PM PM PM PM PM PM PM PM PM PM PM PM
E S S E S S E S S E S S E S S E S S E S S E S S
--------------------------------------|--------------------------------------|
--------------------------------------|--------------------------------------|
--------------------------------------|--------------------------------------|
--4-----------------------------------|--4-----------------------------------|
--4-----------------------------------|--4-----------------------------------|
--2--2--2--2--2--2--5--2--2--4--5--2--|--2--2--2--2--2--2--5--2--2--4--5--2--|


PM PM PM PM PM PM PM PM PM PM PM PM PM PM PM PM
E S S E S S E S S E S S E S S E S S Q Q
--------------------------------------|------------------------------|
--------------------------------------|------------------------------|
--2-----------------------------------|--6----------------------4----|
--2-----------------------------------|--6-----------------2----4----|
--0--0--0--0--0--0--4--0--0--2--4--0--|--4--4--4--4--4--4--2----2----|
--------------------------------------|--------------------0---------|


PM PM PM PM PM PM PM PM PM PM PM PM PM PM PM PM PM PM PM PM PM PM
E S S E S S E S S E S S E S S E S S E S S E S S
--------------------------------------|--------------------------------------|
--------------------------------------|--------------------------------------|
--------------------------------------|--------------------------------------|
--4-----------------------------------|--4-----------------------------------|
--4-----------------------------------|--4-----------------------------------|
--2--2--2--2--2--2--5--2--2--4--5--2--|--2--2--2--2--2--2--5--2--2--4--5--2--|


PM PM PM PM PM PM PM PM PM PM PM
E S S E S S E S S E S S
--------------------------------------|
--------------------------------------|
--2-----------------------------------|
--2-----------------------------------|
--0--0--0--0--0--0--4--0--0--2--4--0--|
--------------------------------------|


PM PM PM PM PM PM PM PM PM PM PM PM PM
E S S E S S S S S S S S S S
--------------------------------------------|
--------------------------------------------|
--6-----------------------------------------|
--6-----------------------------------------|
--4--4--4--4--4--4--7--6--4--4--6--7--4--4--|
--------------------------------------------|


PM PM PM PM PM PM PM PM PM PM PM PM PM PM PM PM PM PM PM PM PM PM
E S S E S S E S S E S S E S S E S S E S S E S S
--------------------------------------|--------------------------------------|
--------------------------------------|--------------------------------------|
--------------------------------------|--------------------------------------|
--4-----------------------------------|--4-----------------------------------|
--4-----------------------------------|--4-----------------------------------|
--2--2--2--2--2--2--5--2--2--4--5--2--|--2--2--2--2--2--2--5--2--2--4--5--2--|


PM PM PM PM PM PM PM PM PM PM PM PM PM PM PM PM
E S S E S S E S S E S S E S S E S S Q Q
--------------------------------------|------------------------------|
--------------------------------------|------------------------------|
--2-----------------------------------|--6----------------------4----|
--2-----------------------------------|--6-----------------2----4----|
--0--0--0--0--0--0--4--0--0--2--4--0--|--4--4--4--4--4--4--2----2----|
--------------------------------------|--------------------0---------|


PM PM PM PM PM PM PM PM PM PM
E S S E S S E S S E E
-----------------------------------|
-----------------------------------|
-----------------------------------|
--4--------------------------------|
--4--------------------------------|
--2--2--2--2--2--2--5--2--2--4--5--|


PM PM PM PM PM PM PM PM PM PM PM PM PM
E S S E S S S S S S S S S S
--------------------------------------------|
--------------------------------------------|
--6-----------------------------------------|
--6-----------------------------------------|
--4--4--4--4--4--4--7--6--4--4--6--7--4--4--|
--------------------------------------------|


PM PM PM PM PM PM PM PM PM PM PM PM
E S S E S S E S S E E E Q E Q Q
-----------------------------------|-----------------------|
-----------------------------------|-----------------------|
--2--------------------------------|-----4-------2----2----|
--2--------------------------------|--4--4----4--2----2----|
--0--0--0--0--0--0--4--0--0--2--4--|--2--2----2--0----0----|
-----------------------------------|-----------------------|


PM PM PM PM PM PM PM PM PM PM PM PM PM PM PM PM PM
E S S E S S E S S E E E Q S S E S S E E
-----------------------------------|-------------------------------|
-----------------------------------|-------------------------------|
-----------------------------------|-------------------------------|
--2--------------------------------|-----5-------------------------|
--2--------------------------------|-----5-------------------------|
--0--0--0--0--0--0--3--0--0--2--3--|-----3----3--3--7--3--3--5--7--|


E Q S S Q Q Q Q H
------------------------|---------------------|
------------------------|---------------------|
-----7--------5----4----|---------------------|
-----7--------5----4----|--2------------------|
-----5----5-5-3----2----|--2------------------|
------------------------|--0------------------|


PM PM PM PM PM PM PM PM PM PM PM PM
Q S S S S Q S S S S Q E E Q S S S S
------------------------------------|------------------------------|
------------------------------------|------------------------------|
-------------------4----------------|-------5-----5----------------|
--2----------------4----------------|--5----5-----5----------------|
--2----------------2----2--2--2--2--|--5----3-----3----3--3--3--3--|
--0----0--0--0--0-------------------|--3---------------------------|


PM PM PM PM PM PM
E E E E Q S S S S E E E E H
-------------------------------|-----------------------|
-------------------------------|-----------------------|
--7-----7-----7----------------|--9-----9-----9--------|
--7-----7--5--7----------------|--9-----9--7--9--------|
--5-----5--3--5----5--5--5--5--|--7-----7--5--7--------|
-------------------------------|-----------------------|


PM PM PM PM PM PM PM PM PM PM PM PM
Q S S S S Q S S S S Q E E Q S S S S
------------------------------------|------------------------------|
------------------------------------|------------------------------|
-------------------4----------------|-------5-----5----------------|
--2----------------4----------------|--5----5-----5----------------|
--2----------------2----2--2--2--2--|--5----3-----3----3--3--3--3--|
--0----0--0--0--0-------------------|