K vraag et aan

Gitaarliedjes, tabs & akkoorden (chords) K vraag et aan - fixkes

Songtype: Tab

arrow&v

Markeer als favoriet

Favoriet

Gemarkeerd als favoriet

Capo:

0

fixkes

fixkes

Song
Album
Categorie

K vraag et aan

Downloads
194
Niveau
2

Geplaatst door
gitaartabs
ProTabs-promo.jpg

eerst alleen gitaar dan val je in met de zang

vers
G|------------------------------------------------|
D|------------------------------------------------|
A|---5-5-55-554-0-0-00--01-2-2-22-220-------------|
E|---------------------3--------------3-33/5550---|

chorus
G|----------------------|
D|----------------------|
A|----------------------|
E|---3-3-33-333/55555---|
't was zo simpel allemaal zo simpel allemaal...

bridge
G|----------------------------------------|
D|----------------------------------------|
A|---5---54-0-0-00--01-2-2-22-220---------|
E|-----------------3--------------33335---|
derde couplette potteke potteke potteke vet...

ProTabs promo.jpg

Onbeperkt en gratis toegang tot alle 25.000
Tabs & Chords en direct meespelen met

Artiest Liedje

...

Gitaarakkoorden fixkes - K vraag et aan

Dankzij de bladmuziek op deze pagina wordt het een stuk makkelijker om met de gitaar mee te spelen met K vraag et aan van fixkes De ProTabs van Gitaartabs worden door onze professionele gitaardocenten samengesteld. De tabs en chords zijn door leden zelf geplaatst. Deze undefined van fixkes met K vraag et aan is voor je geschreven door gitaartabs

Tabs & Chords van fixkes - K vraag et aan

Bij de ProTabs delen we niet alleen de tablatuur maar ook de speelwijze van K vraag et aan Met een beetje gitaar ervaring moet je dit gitaarliedje zeker kunnen spelen, maar als het niet lukt zijn we er altijd om je te helpen. Door een gratis account aan te maken krijg je niet alleen toegang tot deze tab ,akkoorden & tabs van K vraag et aan maar kun je ook onbeperkt meespelen met een van de meer dan 25.000 andere tabs & chords in onze database.

Plaats opmerking

Verstuur

Beoordeel deze song

Rate UsDon’t love itNot greatGoodGreatLove itRate Us

Bedankt voor je beoordeling!