I'm so sick

Gitaarliedjes, tabs & akkoorden (chords) I'm so sick - flyleaf

Songtype: Tab

arrow&v

Markeer als favoriet

Favoriet

Gemarkeerd als favoriet

Capo:

0

flyleaf

flyleaf

Song
Album
Categorie

I'm so sick

Downloads
1101
Niveau
1
Geplaatst door
[b]lack[a]ngel
ProTabs-promo.jpg

Weer niet zo'n moeilijke van Flyleaf, luister naar het liedje om de timing te krijgen
De tuning is trouwens drop D
PM staat voor Palmmute (de hand op de snaren) voor degene die dat niet wisten
Hij kinkt het mooist als je je versterker zo zwaar mogenlijk zet (dus zet die distortion maar helemaal OPEN)

Intro
e|----------------------------------------------------|
B|----------------------------------------------------|
G|---------------------------------------11-11-11-----|
D|--3----0--3--0--3--4--3--0--4/6--6--6---x--x--x-----|
A|--3----0--3--0--3--4--3--0--4/6--6--6---9--9--9-----|
D|--3----0--3--0--3--4--3-—0--4/6--6--6---------------| x2
|---------------------PM----------------------------|

e|-------------------------------------------------|
B|-------------------------------------------------|
G|-------------------------------------------------|
D|--3----0--3--0--3--4--3--0--4/6--6--6--4-4-4-----|
A|--3----0--3--0--3--4--3--0--4/6--6--6--4-4-4-----|
D|--3----0--3--0--3--4--3-—0--4/6--6--6--4-4-4-----| x2
|--------------------PM--------------------------|

e|---------------------------------------------------|
B|---------------------------------------------------|
G|---------------------------------------11-11-11----|
D|--3----0--3--0--3--4--3--0--4/6--6--6---x--x--x----|
A|--3----0--3--0--3--4--3--0--4/6--6--6---9--9--9----|
D|--3----0--3--0--3--4--3-—0--4/6--6--6--------------|
|---------------------PM---------------------------|

e|----------------------------------------------|
B|----------------------------------------------|
G|----------------------------------------------|
D|--3----0--3--0--3--4--3--0--4/6--6--6--4-4----|
A|--3----0--3--0--3--4--3--0--4/6--6--6--4-4----|
D|--3----0--3--0--3--4--3-—0--4/6--6--6--4-4----|
|-------------------PM------------------------|

e|-------------------------------------------------|
B|-------------------------------------------------|
G|---------------------------------------11-11-11--|
D|--3----0--3--0--3--4--3--0--4/6--6--6---x--x--x--| x4
A|--3----0--3--0--3--4--3--0--4/6--6--6---9--9--9--|
D|--3----0--3--0--3--4--3-—0--4/6--6--6------------|



e|-------------------------------------------------------------------|
B|-------------------------------------------------------------------|
G|-------------------------------------------------------------------|
D|--8-8-8-8-8-8-8-8-8-8-8-8-8-8-8-8-5-5-5-5-5-5-5-5-5-5-5-5-5-5-5-5--|
A|--8-8-8-8-8-8-8-8-8-8-8-8-8-8-8-8-5-5-5-5-5-5-5-5-5-5-5-5-5-5-5-5--| x2
D|--8-8-8-8-8-8-8-8-8-8-8-8-8-8-8-8-5-5-5-5-5-5-5-5-5-5-5-5-5-5-5-5--|


Couplet x2
e|-------------------------------------------------|
B|-------------------------------------------------|
G|---------------------------------------11-11-11--|
D|--3----0--3--0--3--4--3--0--4/6--6--6---x--x--x--|
A|--3----0--3--0--3--4--3--0--4/6--6--6---9--9--9--|
D|--3----0--3--0--3--4--3-—0--4/6--6--6------------|


REF. x8
e|-------------------------------|
B|-------------------------------|
G|-------------------------------|
D|-------------------------------|
A|-------------------------------|
D|--3---0-0----0--6-6---6-4—4----|
|------------PM----------------|



e|-------------------------------------------------------------------|
B|-------------------------------------------------------------------|
G|-------------------------------------------------------------------|
D|--8-8-8-8-8-8-8-8-8-8-8-8-8-8-8-8-5-5-5-5-5-5-5-5-5-5-5-5-5-5-5-5--|
A|--8-8-8-8-8-8-8-8-8-8-8-8-8-8-8-8-5-5-5-5-5-5-5-5-5-5-5-5-5-5-5-5--|
D|--8-8-8-8-8-8-8-8-8-8-8-8-8-8-8-8-5-5-5-5-5-5-5-5-5-5-5-5-5-5-5-5--| x2


Couplet x2
e|-------------------------------------------------|
B|-------------------------------------------------|
G|---------------------------------------11-11-11--|
D|--3----0--3--0--3--4--3--0--4/6--6--6---x--x--x--|
A|--3----0--3--0--3--4--3--0--4/6--6--6---9--9--9--|
D|--3----0--3--0--3--4--3-—0--4/6--6--6------------|


REf x8
e|-------------------------------|
B|-------------------------------|
G|-------------------------------|
D|-------------------------------|
A|-------------------------------|
D|--3---0-0----0--6-6---6-4—4----|
|------------PM----------------|


Bridge
e|-------------------------------------------------------------------|
B|-------------------------------------------------------------------|
G|-------------------------------------------------------------------|
D|--8-8-8-8-8-8-8-8-8-8-8-8-8-8-8-8-5-5-5-5-5-5-5-5-5-5-5-5-5-5-5-5--|
A|--8-8-8-8-8-8-8-8-8-8-8-8-8-8-8-8-5-5-5-5-5-5-5-5-5-5-5-5-5-5-5-5--|
D|--8-8-8-8-8-8-8-8-8-8-8-8-8-8-8-8-5-5-5-5-5-5-5-5-5-5-5-5-5-5-5-5--|

e|-----------------------------------------------------------------------|
B|-----------------------------------------------------------------------|
G|----------------------------------------------------------11-11-11-11--|
D|--8-8-8-8-8-8-8-8-8-8-8-8-8-8-8-8-5-5-5-5-5-5-5-5-5-5-5-5--x--x--x--x--|
A|--8-8-8-8-8-8-8-8-8-8-8-8-8-8-8-8-5-5-5-5-5-5-5-5-5-5-5-5--9--9--9--9--|
D|--8-8-8-8-8-8-8-8-8-8-8-8-8-8-8-8-5-5-5-5-5-5-5-5-5-5-5-5--------------|



e|-------------------------------------------------------------------|
B|-------------------------------------------------------------------|
G|-------------------------------------------------------------------|
D|--8-8-8-8-8-8-8-8-8-8-8-8-8-8-8-8-5-5-5-5-5-5-5-5-5-5-5-5-5-5-5-5--|
A|--8-8-8-8-8-8-8-8-8-8-8-8-8-8-8-8-5-5-5-5-5-5-5-5-5-5-5-5-5-5-5-5--|
D|--8-8-8-8-8-8-8-8-8-8-8-8-8-8-8-8-5-5-5-5-5-5-5-5-5-5-5-5-5-5-5-5--| x2


Couplte x2
e|-------------------------------------------------|
B|-------------------------------------------------|
G|---------------------------------------11-11-11--|
D|--3----0--3--0--3--4--3--0--4/6--6--6---x--x--x--|
A|--3----0--3--0--3--4--3--0--4/6--6--6---9--9--9--|
D|--3----0--3--0--3--4--3-—0--4/6--6--6------------|



e|-------------------------------------------------------------------|
B|-------------------------------------------------------------------|
G|-------------------------------------------------------------------|
D|--8-8-8-8-8-8-8-8-8-8-8-8-8-8-8-8-5-5-5-5-5-5-5-5-5-5-5-5-5-5-5-5--|
A|--8-8-8-8-8-8-8-8-8-8-8-8-8-8-8-8-5-5-5-5-5-5-5-5-5-5-5-5-5-5-5-5--|
D|--8-8-8-8-8-8-8-8-8-8-8-8-8-8-8-8-5-5-5-5-5-5-5-5-5-5-5-5-5-5-5-5--| x2


Outro
e|-------------------------------------------------|
B|-------------------------------------------------|
G|---------------------------------------11-11-11--|
D|--3----0--3--0--3--4--3--0--4/6--6--6---x--x--x--| x3
A|--3----0--3--0--3--4--3--0--4/6--6--6---9--9--9--|
D|--3----0--3--0--3--4--3-—0--4/6--6--6------------|

e|----------------------------------------------------|
B|----------------------------------------------------|
G|---------------------------------------11-11-11-11--|
D|--3----0--3--0--3--4--3--0--4/6--6--6---x--x--x--x--|
A|--3----0--3--0--3--4--3--0--4/6--6--6---9--9--9--9--|
D|--3----0--3--0--3--4--3-—0--4/6--6--6---------------|

I will break into your thoughts
With what's written on my heart
I will break, break

I'm so sick, infected with
Where I live
Let me live without this
Empty bliss, selfishness
I'm so sick
I'm so sick

If you want more of this
We can push out, sell out, die out
So you'll shut up
And stay sleeping
With my screaming in your itching ears

I'm so sick, infected with
Where I live
Let me live without this
Empty bliss, selfishness
I'm so sick
I'm so sick

Hear it, I'm screaming it
You're heeding to it now
Hear it, I'm screaming it
You tremble at this sound

You sink into my clothes
This invasion makes me feel
Worthless, hopeless, sick

I'm so sick, infected with
Where I live
Let me live without this
Empty bliss, selfishness
I'm so, I'm so sick

I'm so sick, infected with
Where I live
Let me live without this
Empty bliss, selfishness
I'm so (I'm so)
I'm so sick (I'm so sick)
I'm so (I'm so)
I'm so sick (I'm so sick)

ProTabs promo.jpg

Onbeperkt en gratis toegang tot alle 25.000
Tabs & Chords en direct meespelen met

Artiest Liedje

...

Gitaarakkoorden flyleaf - I'm so sick

Dankzij de bladmuziek op deze pagina wordt het een stuk makkelijker om met de gitaar mee te spelen met I'm so sick van flyleaf De ProTabs van Gitaartabs worden door onze professionele gitaardocenten samengesteld. De tabs en chords zijn door leden zelf geplaatst. Deze undefined van flyleaf met I'm so sick is voor je geschreven door [b]lack[a]ngel

Tabs & Chords van flyleaf - I'm so sick

Bij de ProTabs delen we niet alleen de tablatuur maar ook de speelwijze van I'm so sick Met een beetje gitaar ervaring moet je dit gitaarliedje zeker kunnen spelen, maar als het niet lukt zijn we er altijd om je te helpen. Door een gratis account aan te maken krijg je niet alleen toegang tot deze tab ,akkoorden & tabs van I'm so sick maar kun je ook onbeperkt meespelen met een van de meer dan 25.000 andere tabs & chords in onze database.

Plaats opmerking

Beoordeel deze song

Rate UsDon’t love itNot greatGoodGreatLove itRate Us

Bedankt voor je beoordeling!