Best of you

Gitaarliedjes, tabs & akkoorden (chords) Best of you - foo fighters

Songtype: Tab

arrow&v

Markeer als favoriet

Favoriet

Gemarkeerd als favoriet

Capo:

0

foo fighters

foo fighters

Song
Album
Categorie

Best of you

Downloads
862
Niveau
2
Geplaatst door
gitaartabs
ProTabs-promo.jpg

Couplet
C# A B A
e|---0--------------|----0-----------| e|---0--------------|----0-----------|
B|---0--------------|----0-----------| B|---0--------------|----0-----------|
G|---4--------------|----4-----------| (x2) G|---4--------------|----4-----------|
D|---2--------------|----2-----------| D|---4--------------|----2-----------|
A|---4--------------|----0-----------| A|---2--------------|----0-----------|
E|------------------|----------------| E|------------------|----------------|


Refrein
Gtr. 1 soft
C# Eb/E A A
e|---0--------------|----0---------------|---0--------------|----0---------------|
B|---0--------------|----0---------------|---0--------------|----0---------------|
G|---4--------------|----4---------------|---4--------------|----4---------------| (x3)
D|---2--------------|----1---------------|---2--------------|----2---------------|
A|---4--------------|----x---------------|---0--------------|----0---------------|
E|------------------|----0---------------|------------------|--------------------|

Gtr. 1 heavy
C# A B A
e|---0--------------|----0-----------| e|---0--------------|----0----------|
B|---0--------------|----0-----------| B|---0--------------|----0----------|
G|---4--------------|----4-----------| (x2) G|---4--------------|----4----------|
D|---2--------------|----2-----------| D|---4--------------|----2----------|
A|---4--------------|----0-----------| A|---2--------------|----0----------|
E|------------------|----------------| E|------------------|---------------|

C# A B A
e|---0--------------|----0-----------| e|---0--------------|----0----------|
B|---0--------------|----0-----------| B|---0--------------|----0----------|
G|---4--------------|----4-----------| (x2) G|---4--------------|----4----------|
D|---2--------------|----2-----------| D|---4--------------|----2----------|
A|---4--------------|----0-----------| A|---2--------------|----0----------|
E|------------------|----------------| E|------------------|-------- ------|

Gtr. 1 heavy
C# Eb/E A F#
e|---0--------------|----0---------------|---0--------------|----0---------------|
B|---0--------------|----0---------------|---0--------------|----0---------------|
G|---4--------------|----4---------------|---4--------------|----3---------------| (x4)
D|---2--------------|----1---------------|---2--------------|----4---------------|
A|---4--------------|----x---------------|---0--------------|----4---------------|
E|------------------|----0---------------|------------------|----2---------------|

Gtr. 2 octaves
e|--------------------------|--------------------------|
B|--------------------------|--------------------------|
G|--6--6--6--6--6--6--6--6/-|--8--8--8--8--8--8--8--8/-|
D|--x--x--x--x--x--x--x--x--|--x--x--x--x--x--x--x--x--|
A|--4--4--4--4--4--4--4--4/-|--6--6--6--6--6--6--6--6/-|\
E|--------------------------|--------------------------| |
|x2
e|--------------------------|--------------------------| |
B|--------------------------|--------------------------|/
G|--9--9--9--9--9--9--9--9/-|--6--6--6--6--6--6--6--6--|
D|--x--x--x--x--x--x--x--x--|--x--x--x--x--x--x--x--x--|
A|--7--7--7--7--7--7--7--7/-|--4--4--4--4--4--4--4--4--|
E|--------------------------|--------------------------|

e|----------------------------------|----------------------------------|
B|----------------------------------|----------------------------------|
G|--13--13--13--13--13--13--13--13/-|--16--16--16--16--16--16--16--16/-|
D|--x---x---x---x---x---x---x---x---|--x---x---x---x---x---x---x---x---|
A|--11--11--11--11--11--11--11--11/-|--14--14--14--14--14--14--14--14/-|
E|----------------------------------|----------------------------------|

e|----------------------------------|----------------------------------|
B|----------------------------------|----------------------------------|
G|--18--18--18--18--18--18--18--18/-|--15--15--15--15--15--15--15--15--|
D|--x---x---x---x---x---x---x---x---|--x---x---x---x---x---x---x---x---|
A|--16--16--16--16--16--16--16--16/-|--13--13--13--13--13--13--13--13--|
E|----------------------------------|----------------------------------|

e|----------------------------------|----------------------------------|
B|----------------------------------|----------------------------------|
G|--13--13--13--13--13--13--13--13/-|--16--16--16--16--16--16--16--16/-|
D|--x---x---x---x---x---x---x---x---|--x---x---x---x---x---x---x---x---|
A|--11--11--11--11--11--11--11--11/-|--14--14--14--14--14--14--14--14/-|
E|----------------------------------|----------------------------------|

e|----------------------------------|----------------------------------|
B|----------------------------------|----------------------------------|
G|--18--18--18--18--18--18--18--18/-|--18--18--18--18--18--18--18--18--|
D|--x---x---x---x---x---x---x---x---|--x---x---x---x---x---x---x---x---|
A|--16--16--16--16--16--16--16--16/-|--16--16--16--16--16--16--16--16--|
E|----------------------------------|----------------------------------|


Lead (HEEL snel strummen)
e|----------------------------------|--------------------------------|
B|----------------------------------|--------------------------------|
G|--13--13--13--13--13--13--13--13--|--13--13--13--13--16---13---16--|
D|--x---x---x---x---x---x---x---x---|--x---x---x---x---x----x----x---|
A|--11--11--11--11--11--11--11--11--|--11--11--11--11--14---11---14--|
E|----------------------------------|--------------------------------|

e|----------------------------------|----------------------------------|
B|----------------------------------|----------------------------------|
G|--18--18--18--18--16--16--16--16--|--16--16--16--16--16--16--16--16--|
D|--x---x---x---x---x---x---x---x---|--x---x---x---x---x---x---x---x---|
A|--16--16--16--16--14--14--14--14--|--14--14--14--14--14--14--14--14--|
E|----------------------------------|----------------------------------|

e|----------------------------------|--------------------------------|
B|----------------------------------|--------------------------------|
G|--13--13--13--13--13--13--13--13--|--13--13--13--13--16---13---16--|
D|--x---x---x---x---x---x---x---x---|--x---x---x---x---x----x----x---|
A|--11--11--11--11--11--11--11--11--|--11--11--11--11--14---11---14--|
E|----------------------------------|--------------------------------|

e|----------------------------------|----------------------------------|
B|----------------------------------|----------------------------------|
G|--18--18--18--18--18--18--18--18--|--18--18--18--18--18--18--18--18--|
D|--x---x---x---x---x---x---x---x---|--x---x---x---x---x---x---x---x---|
A|--16--16--16--16--16--16--16--16--|--16--16--16--16--16--16--16--16--|
E|----------------------------------|----------------------------------|


Laatste Couplet
C# A B A
e|---0--------------|----0-----------| e|---0--------------|----0-----------|
B|---0--------------|----0-----------| B|---0--------------|----0-----------|
G|---4--------------|----4-----------| (x2) G|---4--------------|----4-----------|
D|---2--------------|----2-----------| D|---4--------------|----2-----------|
A|---4--------------|----0-----------| A|---2--------------|----0-----------|
E|------------------|----------------| E|------------------|----------------|

C# Eb/E A F#
e|---0--------------|----0---------------|---0--------------|----0---------------|
B|---0--------------|----0---------------|---0--------------|----0---------------|
G|---4--------------|----4---------------|---4--------------|----3---------------| (x4)
D|---2--------------|----1---------------|---2--------------|----4---------------|
A|---4--------------|----x---------------|---0--------------|----4---------------|
E|------------------|----0---------------|------------------|----2---------------|


Outro
C# C#
e|---0-0--\--x-x-x--|----0-0--\--x-x-x---|
B|---0-0--\--x-x-x--|----0-0--\--x-x-x---|
G|---4-4--\--x-x-x--|----4-4--\--x-x-x---|
D|---2-2--\--x-x-x--|----2-2--\--x-x-x---|
A|---4-4--\--x-x-x--|----4-4--\--x-x-x---|
E|-----------x-x-x--|------------x-x-x---|

ProTabs promo.jpg

Onbeperkt en gratis toegang tot alle 25.000
Tabs & Chords en direct meespelen met

Artiest Liedje

...

Gitaarakkoorden foo fighters - Best of you

Dankzij de bladmuziek op deze pagina wordt het een stuk makkelijker om met de gitaar mee te spelen met Best of you van foo fighters De ProTabs van Gitaartabs worden door onze professionele gitaardocenten samengesteld. De tabs en chords zijn door leden zelf geplaatst. Deze undefined van foo fighters met Best of you is voor je geschreven door gitaartabs

Tabs & Chords van foo fighters - Best of you

Bij de ProTabs delen we niet alleen de tablatuur maar ook de speelwijze van Best of you Met een beetje gitaar ervaring moet je dit gitaarliedje zeker kunnen spelen, maar als het niet lukt zijn we er altijd om je te helpen. Door een gratis account aan te maken krijg je niet alleen toegang tot deze tab ,akkoorden & tabs van Best of you maar kun je ook onbeperkt meespelen met een van de meer dan 25.000 andere tabs & chords in onze database.

Plaats opmerking

Beoordeel deze song

Rate UsDon’t love itNot greatGoodGreatLove itRate Us

Bedankt voor je beoordeling!