Doa

Gitaarliedjes, tabs & akkoorden (chords) doa - foo fighters

Songtype: Tab

arrow&v

Markeer als favoriet

Favoriet

Gemarkeerd als favoriet

Capo:

0

foo fighters

foo fighters

Song
Album
Categorie

doa

Downloads
4
Niveau
2
Geplaatst door
[b]lack[a]ngel
ProTabs-promo.jpg

Intro/Couplet
Gtr. 1
e|----------------------------|
B|----------------------------|
G|--5--5--5-5---5--5--5-5--5--| x10
D|--7--7--7-7---7--7--7-7--7--|
A|--0--0--0-0---5--5--5-5--5--|
E|----------------------------|


Pre-Refrein
Gtr. 1
e|------------------------------------------------------------|
B|------------------------------------------------------------|
G|------------------------------------------------------------| x2
D|--3-3-3-3-3-3-3-3-3-3-3-3-3-3-3--5-5-5-5-5-5-5-5-5-5-5-5-5--|
A|--3-3-3-3-3-3-3-3-3-3-3-3-3-3-3--5-5-5-5-5-5-5-5-5-5-5-5-5--|
E|--1-1-1-1-1-1-1-1-1-1-1-1-1-1-1--2-2-2-2-2-2-2-2-2-2-2-2-2--|

Gtr. 2
e|--------------------------------------------------|
B|--------------------------------------------------|
G|------0-------0-------0-------0------0-------0----| x2
D|--------3-------3-------3--------------5-------5--|
A|----3-------3-------3-------3------5-------5------|
E|--1-------1-------1-------1------2-------2--------|


Refrein
Gtr. 1
e|--------------------------------------|
B|--------------------------------------|
G|--2-2-2-2--2-2-2-2--2-2-2-2--2-2-2-2--|
D|--2-2-2-2--4-4-4-4--2-2-2-2--4-4-4-4--|
A|--0-0-0-0--0-0-0-0--0-0-0-0--0-0-0-0--|
E|--------------------------------------|

e|--------------------------------------|
B|--3-3-3-3--3-3-3-3--3-3-3-3--3-3-3-3--|
G|--2-2-2-2--2-2-2-2--2-2-2-2--2-2-2-2--|
D|--0-0-0-0--0-0-0-0--0-0-0-0--0-0-0-0--|
A|--0-0-0-0--2-2-2-2--0-0-0-0--2-2-2-2--|
E|--------------------------------------|


Couplet
Gtr. 1
e|----------------------------|
B|----------------------------|
G|--5--5--5-5---5--5--5-5--5--| x4
D|--7--7--7-7---7--7--7-7--7--|
A|--0--0--0-0---5--5--5-5--5--|
E|----------------------------|

Gtr. 2 [1:29]
e|----------------------------|
B|----------------------------|
G|--5h7-7-5-7-5---5-5--5-5-5--| Tot het voor-refrein
D|--7---7-7-7-7---7-7--7-7-7--|
A|--0---0-0-0-0---5-5--5-5-5--|
E|----------------------------|


Voor-Refrein
Gtr. 1
e|------------------------------------------------------------|
B|------------------------------------------------------------|
G|------------------------------------------------------------| x2
D|--3-3-3-3-3-3-3-3-3-3-3-3-3-3-3--5-5-5-5-5-5-5-5-5-5-5-5-5--|
A|--3-3-3-3-3-3-3-3-3-3-3-3-3-3-3--5-5-5-5-5-5-5-5-5-5-5-5-5--|
E|--1-1-1-1-1-1-1-1-1-1-1-1-1-1-1--2-2-2-2-2-2-2-2-2-2-2-2-2--|

Gtr. 2
e|--------------------------------------------------|
B|--------------------------------------------------|
G|------0-------0-------0-------0------0-------0----| x2
D|--------3-------3-------3--------------5-------5--|
A|----3-------3-------3-------3------5-------5------|
E|--1-------1-------1-------1------2-------2--------|


Refrein
Gtr. 1
e|--------------------------------------|
B|--------------------------------------|
G|--2-2-2-2--2-2-2-2--2-2-2-2--2-2-2-2--|
D|--2-2-2-2--4-4-4-4--2-2-2-2--4-4-4-4--|
A|--0-0-0-0--0-0-0-0--0-0-0-0--0-0-0-0--|
E|--------------------------------------|

e|--------------------------------------|
B|--3-3-3-3--3-3-3-3--3-3-3-3--3-3-3-3--|
G|--2-2-2-2--2-2-2-2--2-2-2-2--2-2-2-2--|
D|--0-0-0-0--0-0-0-0--0-0-0-0--0-0-0-0--|
A|--0-0-0-0--2-2-2-2--0-0-0-0--2-2-2-2--|
E|--------------------------------------|


Solo
Gtr. 1
e|----------------------------|
B|----------------------------|
G|----------------------------| x6
D|----------------------------|
A|--5-7-7-5-7-5---------------|
E|--------------7-5--5-3-5-3--|


Couplet 2
Gtr. 1 [2:42]
e|----------------------------|
B|----------------------------|
G|--5h7-7-5-7-5---5-5--5-5-5--| x8
D|--7---7-7-7-7---7-7--7-7-7--|
A|--0---0-0-0-0---5-5--5-5-5--|
E|----------------------------|

Voor Referin
Gtr. 1
e|------------------------------------|
B|------------------------------------|
G|------------------------------------|
D|--3-3-3-3-3-3-3-3--5-5-5-5-5-5-5-5--|
A|--3-3-3-3-3-3-3-3--5-5-5-5-5-5-5-5--|
E|--1-1-1-1-1-1-1-1--2-2-2-2-2-2-2-2--|

e|-------------------------------------------------|
B|-------------------------------------------------|
G|-------------------------------------------------|
D|--3-3-x-3-3-x-3-3-x-3-3-x-5-5-x-5-5-x-5-5-x-5-5--|
A|--3-3-x-3-3-x-3-3-x-3-3-x-5-5-x-5-5-x-5-5-x-5-5--|
E|--1-1-x-1-1-x-1-1-x-1-1-x-2-2-x-2-2-x-2-2-x-2-2--|

Gtr. 2 [3:03]
e|----------------------|
B|----------------------|
G|--7-7--9-9--11-11-12--|
D|--x-x--x-x--x--x--x---|
A|--5-5--7-7--9--9--10--|
E|----------------------|

Refrein Gtr. 1
e|--------------------------------------|
B|--------------------------------------|
G|--2-2-2-2--2-2-2-2--2-2-2-2--2-2-2-2--|
D|--2-2-2-2--4-4-4-4--2-2-2-2--4-4-4-4--|
A|--0-0-0-0--0-0-0-0--0-0-0-0--0-0-0-0--|
E|--------------------------------------|

e|--------------------------------------|
B|--3-3-3-3--3-3-3-3--3-3-3-3--3-3-3-3--|
G|--2-2-2-2--2-2-2-2--2-2-2-2--2-2-2-2--|
D|--0-0-0-0--0-0-0-0--0-0-0-0--0-0-0-0--|
A|--0-0-0-0--2-2-2-2--0-0-0-0--2-2-2-2--|
E|--------------------------------------|


Outro
Gtr. 1 [3:51]
e|----------------------------|----|
B|----------------------------|----|
G|--5h7-7-5-7-5---5-5--5-5-5--|----|
D|--7---7-7-7-7---7-7--7-7-7--|-7--|
A|--0---0-0-0-0---5-5--5-5-5--|-5--|
E|----------------------------|----|

ProTabs promo.jpg

Onbeperkt en gratis toegang tot alle 25.000
Tabs & Chords en direct meespelen met

Artiest Liedje

...

Gitaarakkoorden foo fighters - doa

Dankzij de bladmuziek op deze pagina wordt het een stuk makkelijker om met de gitaar mee te spelen met doa van foo fighters De ProTabs van Gitaartabs worden door onze professionele gitaardocenten samengesteld. De tabs en chords zijn door leden zelf geplaatst. Deze undefined van foo fighters met doa is voor je geschreven door [b]lack[a]ngel

Tabs & Chords van foo fighters - doa

Bij de ProTabs delen we niet alleen de tablatuur maar ook de speelwijze van doa Met een beetje gitaar ervaring moet je dit gitaarliedje zeker kunnen spelen, maar als het niet lukt zijn we er altijd om je te helpen. Door een gratis account aan te maken krijg je niet alleen toegang tot deze tab ,akkoorden & tabs van doa maar kun je ook onbeperkt meespelen met een van de meer dan 25.000 andere tabs & chords in onze database.

Plaats opmerking

Beoordeel deze song

Rate UsDon’t love itNot greatGoodGreatLove itRate Us

Bedankt voor je beoordeling!