Monkey wrench

Gitaarliedjes, tabs & akkoorden (chords) Monkey wrench - foo fighters

Songtype: Tab

arrow&v

Markeer als favoriet

Favoriet

Gemarkeerd als favoriet

Capo:

0

foo fighters

foo fighters

Song
Album
Categorie

Monkey wrench

Downloads
177
Niveau
3
Geplaatst door
[b]lack[a]ngel
ProTabs-promo.jpg

Gespeeld op 3 gitaren, kan natuurlijk ook op een (pak dan wel een van de 2 rifjes, anders wordt het heel moeilijk xD)

Intro 2x
Gtr3
e|----0--0-0-0-0-0-0-0-0-0-0-0-0-0-0-0-0-0-0-0-0-0-0-0-0-0-0-0-0-0-0-0-------|
B|----0--0-0-0-0-0-0-0-0-0-0-0-0-0-0-0-0-0-0-0-0-0-0-0-0-0-0-0-0-0-0-0-------|
G|---11-11-9-9-8-8-6-6/9-9-8-8-6-6-4-4/6-6-4-4-1-1/4-4/6-6-4-4/6-6-6-4-------|
D|---------------------------------------------------------------------------|
A|---------------------------------------------------------------------------|
D|---------------------------------------------------------------------------|


Gt.1 & 2
e|---------------------------------------------------------------------------|
B|---------------------------------------------------------------------------|
G|-----4-4-4-4-4-4-4-4-4-4-4-4-4---------------------------------------------|
D|-----4-4-4-4-4-4-4-4-4-4-4-4-4-4-4-4-4-2-2-2-2-2-2-2-2-2-2-0-2-0-2-0-------|
A|-----2-2-2-2-2-2-2-2-2-2-2-2-2-4-4-4-4-2-2-2-2-2-2-2-2-2-2-0-2-0-2-0-------|
D|15-----------------------------4-4-4-4-2-2-2-2-2-2-2-2-2-2-0-2-0-2-0-------|


Cuoplet 4x

gt. 1 & 2
P.M.----------------------------------------------------------------|
e|---------------------------------------------------------------------------|
B|---------------------------------------------------------------------------|
G|-----4---------------------------------------------------------------------|
D|-----4-4-4-4-4-4-4-4-4-4---------------------------------------------------|
A|-----2-2-2-2-2-2-2-2-2-2-4-4-4-4-2-2-2-2-2-2-2-2-2-2-0-2-0-2-0-------------|
D|-------------------------4-4-4-4-2-2-2-2-2-2-2-2-2-2-0-2-0-2-0-------------|
"What have we done...."


Pre-Referin 1x

Gt. 1 & 2

e|-------------------------------------------------------------------------|
B|-------------------------------------------------------------------------|
G|-2--2--------------------------------------2--2--------------------------|
D|-------2--2--2--0--2--2--2--0--2--0--2--0--4--4--2--2--2--0--------------|
A|-------2--2--2--0--2--2--2--0--2--0--2--0--------2--2--2--0--------------|
D|-------2--2--2--0--2--2--2--0--2--0--2--0--------2--2--2--0--------------|

e|---------------------------------------------------------------------------|
B|--------------------------------------------------------------0--0---------|
G|-------------------------------2--2---------------------------0--0---------|
D|-------2--2--2--0--2--0--2--0--3--3--2--2--2--0--2--2---------0--0---------|
A|-------2--2--2--0--2--0--2--0--------2--2--2--0--2--2----------------------|
D|-------2--2--2--0--2--0--2--0--------2--2--2--0--2--2--2/15----------------|
"One in ten...."

Refrein 3x

Gt.1

e|-------------------------------------------------------------------------|
B|-------------------------------------------------------------------------|
G|-------------------------------------------------------------5-----------|
D|----9--9--9--9--6--6--6--6--4--2--2--2--2--2--4--2--2--4--2--5-----------|
A|----9--9--9--9--6--6--6--6--4--2--2--2--2--2--4--2--2--4--2--3-----------|
D|----9--9--9--9--6--6--6--6--4--2--2--2--2--2--4--2--2--4--2--------------|

Gt.2

e|-------------------------------------------------------------------------|
B|----------------9--9--9--9--11-9--9--9--9--9--11-9--9--11-9--------------|
G|----11-11-11-11-8--8--8--8--11-9--9--9--9--9--11-9--9--11-9--------------|
D|----9--9--9--9--6--6--6--6--11-9--9--9--9--9--11-9--9--11-9--10----------|
A|----9--9--9--9--6--6--6--6--9--7--7--7--7--7--9--7--7--9--7--10----------|
D|----9--9--9--9--6--6--6--6-----------------------------------10----------|

Gt.1

e|-------------------------------------------------------------------------|
B|-------------------------------------------------------------------------|
G|-------------------------------------------------------------5-----------|
D|-x--x--9--9--9--6--6--6--6--4--2--2--2--2--2--4--2--2--4--2--5-----------|
A|-x--x--9--9--9--6--6--6--6--4--2--2--2--2--2--4--2--2--4--2--3-----------|
D|-x--x--9--9--9--6--6--6--6--4--2--2--2--2--2--4--2--2--4--2--------------|

Gt.2

e|-------------------------------------------------------------------------|
B|----------------9--9--9--9--11-9--9--9--9--9--11-9--9--11-9--------------|
G|-------11-11-11-8--8--8--8--11-9--9--9--9--9--11-9--9--11-9--------------|
D|-x--x--9--9--9--6--6--6--6--11-9--9--9--9--9--11-9--9--11-9--10----------|
A|-x--x--9--9--9--6--6--6--6--9--7--7--7--7--7--9--7--7--9--7--10----------|
D|-x--x--9--9--9--6--6--6--6-----------------------------------10----------|
"Don't wanna be your monkey wrench...."


Intro 2 2x
Gt. 3
_____1/2b
| |
e|----0--0-0-0-0-0-0-0-0-0-0-0-0-0-0-0-0-0-0-0-0-0-0-0-0-0-0-0-0-0-0-0-------|
B|----0--0-0-0-0-0-0-0-0-0-0-0-0-0-0-0-0-0-0-0-0-0-0-0-0-0-0-0-0-0-0-0-------|
G|---11-11-9-9-8-8-6-6/9-9-8-8-6-6-4-4/6-6-4-4-1-1/4-4/6-6-4-4/6-6-6-4-------|
D|---------------------------------------------------------------------------|
A|---------------------------------------------------------------------------|
D|---------------------------------------------------------------------------|


gt.1 & 2
e|---------------------------------------------------------------------------|
B|---------------------------------------------------------------------------|
G|-----4-4-4-4-4-4-4-4-4-4-4-4-4---------------------------------------------|
D|-----4-4-4-4-4-4-4-4-4-4-4-4-4-4-4-4-4-2-2-2-2-2-2-2-2-2-2-0-2-0-2-0-------|
A|-----2-2-2-2-2-2-2-2-2-2-2-2-2-4-4-4-4-2-2-2-2-2-2-2-2-2-2-0-2-0-2-0-------|
D|15-----------------------------4-4-4-4-2-2-2-2-2-2-2-2-2-2-0-2-0-2-0-------|


Couplet 2 4x

gt. 1 & 2
P.M.----------------------------------------------------------------|
e|---------------------------------------------------------------------------|
B|---------------------------------------------------------------------------|
G|-----4---------------------------------------------------------------------|
D|-----4-4-4-4-4-4-4-4-4-4---------------------------------------------------|
A|-----2-2-2-2-2-2-2-2-2-2-4-4-4-4-2-2-2-2-2-2-2-2-2-2-0-2-0-2-0-------------|
D|-------------------------4-4-4-4-2-2-2-2-2-2-2-2-2-2-0-2-0-2-0-------------|
"All this time...."


Pre-Refrein 1x

Gt. 1 & 2

e|-------------------------------------------------------------------------|
B|-------------------------------------------------------------------------|
G|-2--2--------------------------------------2--2--------------------------|
D|-------2--2--2--0--2--2--2--0--2--0--2--0--4--4--2--2--2--0--------------|
A|-------2--2--2--0--2--2--2--0--2--0--2--0--------2--2--2--0--------------|
D|-------2--2--2--0--2--2--2--0--2--0--2--0--------2--2--2--0--------------|

e|---------------------------------------------------------------------------|
B|--------------------------------------------------------------0--0---------|
G|-------------------------------2--2---------------------------0--0---------|
D|-------2--2--2--0--2--0--2--0--3--3--2--2--2--0--2--2---------0--0---------|
A|-------2--2--2--0--2--0--2--0--------2--2--2--0--2--2----------------------|
D|-------2--2--2--0--2--0--2--0--------2--2--2--0--2--2--2/15----------------|
"One in ten...."


Refrein 2x

Gt.1

e|-------------------------------------------------------------------------|
B|-------------------------------------------------------------------------|
G|-------------------------------------------------------------5-----------|
D|----9--9--9--9--6--6--6--6--4--2--2--2--2--2--4--2--2--4--2--5-----------|
A|----9--9--9--9--6--6--6--6--4--2--2--2--2--2--4--2--2--4--2--3-----------|
D|----9--9--9--9--6--6--6--6--4--2--2--2--2--2--4--2--2--4--2--------------|

Gt.2

e|-------------------------------------------------------------------------|
B|----------------9--9--9--9--11-9--9--9--9--9--11-9--9--11-9--------------|
G|----11-11-11-11-8--8--8--8--11-9--9--9--9--9--11-9--9--11-9--------------|
D|----9--9--9--9--6--6--6--6--11-9--9--9--9--9--11-9--9--11-9--10----------|
A|----9--9--9--9--6--6--6--6--9--7--7--7--7--7--9--7--7--9--7--10----------|
D|----9--9--9--9--6--6--6--6-----------------------------------10----------|

Gt.1

e|-------------------------------------------------------------------------|
B|-------------------------------------------------------------------------|
G|-------------------------------------------------------------5-----------|
D|-x--x--9--9--9--6--6--6--6--4--2--2--2--2--2--4--2--2--4--2--5-----------|
A|-x--x--9--9--9--6--6--6--6--4--2--2--2--2--2--4--2--2--4--2--3-----------|
D|-x--x--9--9--9--6--6--6--6--4--2--2--2--2--2--4--2--2--4--2--------------|

Gt.2

e|-------------------------------------------------------------------------|
B|----------------9--9--9--9--11-9--9--9--9--9--11-9--9--11-9--------------|
G|-------11-11-11-8--8--8--8--11-9--9--9--9--9--11-9--9--11-9--------------|
D|-x--x--9--9--9--6--6--6--6--11-9--9--9--9--9--11-9--9--11-9--10----------|
A|-x--x--9--9--9--6--6--6--6--9--7--7--7--7--7--9--7--7--9--7--10----------|
D|-x--x--9--9--9--6--6--6--6-----------------------------------10----------|
"Don't wanna be your monkey wrench...."


Bridge

3x

Gt. 3
e|-------------------------------------0--------0--0--0--------0--0----------|
B|----------------------------0-----0--0-----0--0--0--0--------0--0----------|
G|-------9-----------------------2--------2--------------2--2----------------|
D|----6--9--9--5--5--5--5--5-------------------------------------------------|
A|----6--7--9--5--5--5--5--5-------------------------------------------------|
D|----6-----9--5--5--5--5--5-------------------------------------------------|

Gt. 1 & 2
e|-------------------------------------------------------------------------|
B|-------------------------------------------------------------------------|
G|-------9-----------------------------------------------------------------|
D|----6--9--9--5--5--5--5--5--4--2--2--2--2--2--4--2--2--2--2--2--0--------|
A|----6--7--9--5--5--5--5--5--4--2--2--2--2--2--4--2--2--2--2--2--0--------|
D|----6-----9--5--5--5--5--5--4--2--2--2--2--2--4--2--2--2--2--2--0--------|
"Temper...."

1x
Gt 1.2 & 3
e|---------------------------------------------------------------------------|
B|---------------------------------------------------------------------------|
G|----------9----------------------------------------------------------------|
D|----6--6--9--9--5--5--5--5--5--5--4--2--2--------4-------------------------|
A|----6--6--7--9--5--5--5--5--5--5--4--2--2--/14---4-------------------------|
D|----6--6-----9--5--5--5--5--5--5--4--2--2--------4-------------------------|

e|---------------------------------------------------------------------------|
B|---------------------------------------------------------------------------|
G|-----------------------------------------------------------------5---------|
D|----2--2--2------------4--2--2--4--2--2--4--2--2--4--2--2--4--2--5---------|
A|----2--2--2------------4--2--2--4--2--2--4--2--2--4--2--2--4--2--3---------|
D|----2--2--2--/14--14---4--2--2--4--2--2--4--2--2--4--2--2--4--2------------|


Couplet 3 4x

gt.1 & 2
e|-------------------------------------------------------------------------|
B|-------------------------------------------------------------------------|
G|-----4-4-4-4-4-4-4-4-4-4-4-4-4-------------------------------------------|
D|-----4-4-4-4-4-4-4-4-4-4-4-4-4-4-4-4-4-2-2-2-2-2-2-2-2-2-2-0-2-0-2-0-----|
A|-----2-2-2-2-2-2-2-2-2-2-2-2-2-4-4-4-4-2-2-2-2-2-2-2-2-2-2-0-2-0-2-0-----|
D|-------------------------------4-4-4-4-2-2-2-2-2-2-2-2-2-2-0-2-0-2-0-----|
"One last thing...."

Pre-Refrein
Gt. 1 & 2

e|-------------------------------------------------------------------------|
B|-------------------------------------------------------------------------|
G|-2--2--------------------------------------2--2--------------------------|
D|-------2--2--2--0--2--2--2--0--2--0--2--0--4--4--2--2--2--0--------------|
A|-------2--2--2--0--2--2--2--0--2--0--2--0--------2--2--2--0--------------|
D|-------2--2--2--0--2--2--2--0--2--0--2--0--------2--2--2--0--------------|

e|---------------------------------------------------------------------------|
B|--------------------------------------------------------------0--0---------|
G|-------------------------------2--2---------------------------0--0---------|
D|-------2--2--2--0--2--0--2--0--3--3--------2--0--2--2---------0--0---------|
A|-------2--2--2--0--2--0--2--0--------x--x--2--0--2--2----------------------|
D|-------2--2--2--0--2--0--2--0--------x--x--2--0--2--2--2/15----------------|
"free!...."

Refrein 2x

Gt.1

e|-------------------------------------------------------------------------|
B|-------------------------------------------------------------------------|
G|-------------------------------------------------------------5-----------|
D|----9--9--9--9--6--6--6--6--4--2--2--2--2--2--4--2--2--4--2--5-----------|
A|----9--9--9--9--6--6--6--6--4--2--2--2--2--2--4--2--2--4--2--3-----------|
D|----9--9--9--9--6--6--6--6--4--2--2--2--2--2--4--2--2--4--2--------------|

Gt.2

e|-------------------------------------------------------------------------|
B|----------------9--9--9--9--11-9--9--9--9--9--11-9--9--11-9--------------|
G|----11-11-11-11-8--8--8--8--11-9--9--9--9--9--11-9--9--11-9--------------|
D|----9--9--9--9--6--6--6--6--11-9--9--9--9--9--11-9--9--11-9--10----------|
A|----9--9--9--9--6--6--6--6--9--7--7--7--7--7--9--7--7--9--7--10----------|
D|----9--9--9--9--6--6--6--6-----------------------------------10----------|

Gt.1

e|-------------------------------------------------------------------------|
B|-------------------------------------------------------------------------|
G|-------------------------------------------------------------5-----------|
D|-x--x--9--9--9--6--6--6--6--4--2--2--2--2--2--4--2--2--4--2--5-----------|
A|-x--x--9--9--9--6--6--6--6--4--2--2--2--2--2--4--2--2--4--2--3-----------|
D|-x--x--9--9--9--6--6--6--6--4--2--2--2--2--2--4--2--2--4--2--------------|

Gt.2

e|-------------------------------------------------------------------------|
B|----------------9--9--9--9--11-9--9--9--9--9--11-9--9--11-9--------------|
G|-------11-11-11-8--8--8--8--11-9--9--9--9--9--11-9--9--11-9--------------|
D|-x--x--9--9--9--6--6--6--6--11-9--9--9--9--9--11-9--9--11-9--10----------|
A|-x--x--9--9--9--6--6--6--6--9--7--7--7--7--7--9--7--7--9--7--10----------|
D|-x--x--9--9--9--6--6--6--6-----------------------------------10----------|
"Don't wanna be your monkey wrench...."

Refrein 2 4x

Fill gt. 2 & 2
e|-----------------|
B|-----------------|
G|-----------------|
D|-----------------|
A|-----------------|
D|-----/16---------|

Gt.1

e|-------------------------------------------------------------------------|
B|-------------------------------------------------------------------------|
G|-------------------------------------------------------------5-----------|
D|----9--9--9--9--6--6--6--6--4--2--2--2--2--2--4--2--2--4--2--5-----------|
A|----9--9--9--9--6--6--6--6--4--2--2--2--2--2--4--2--2--4--2--3-----------|
D|----9--9--9--9--6--6--6--6--4--2--2--2--2--2--4--2--2--4--2--------------|

Gt.2

e|-------------------------------------------------------------------------|
B|----------------9--9--9--9--11-9--9--9--9--9--11-9--9--11-9--------------|
G|----11-11-11-11-8--8--8--8--11-9--9--9--9--9--11-9--9--11-9--------------|
D|----9--9--9--9--6--6--6--6--11-9--9--9--9--9--11-9--9--11-9--10----------|
A|----9--9--9--9--6--6--6--6--9--7--7--7--7--7--9--7--7--9--7--10----------|
D|----9--9--9--9--6--6--6--6-----------------------------------10----------|

Gt. 3 _____1/2b
| |
e|----0--0-0-0-0-0-0-0-0-0-0-0-0-0-0-0-0-0-0-0-0-0-0-0-0-0-0-0-0-0-0-0-------|
B|----0--0-0-0-0-0-0-0-0-0-0-0-0-0-0-0-0-0-0-0-0-0-0-0-0-0-0-0-0-0-0-0-------|
G|---11-11-9-9-8-8-6-6/9-9-8-8-6-6-4-4/6-6-4-4-1-1/4-4/6-6-4-4/6-6-6-4-------|
D|---------------------------------------------------------------------------|
A|---------------------------------------------------------------------------|
D|---------------------------------------------------------------------------|

Gt.1

e|-------------------------------------------------------------------------|
B|-------------------------------------------------------------------------|
G|-------------------------------------------------------------5-----------|
D|-x--x--9--9--9--6--6--6--6--4--2--2--2--2--2--4--2--2--4--2--5-----------|
A|-x--x--9--9--9--6--6--6--6--4--2--2--2--2--2--4--2--2--4--2--3-----------|
D|-x--x--9--9--9--6--6--6--6--4--2--2--2--2--2--4--2--2--4--2--------------|

Gt.2

e|-------------------------------------------------------------------------|
B|----------------9--9--9--9--11-9--9--9--9--9--11-9--9--11-9--------------|
G|-------11-11-11-8--8--8--8--11-9--9--9--9--9--11-9--9--11-9--------------|
D|-x--x--9--9--9--6--6--6--6--11-9--9--9--9--9--11-9--9--11-9--10----------|
A|-x--x--9--9--9--6--6--6--6--9--7--7--7--7--7--9--7--7--9--7--10----------|
D|-x--x--9--9--9--6--6--6--6-----------------------------------10----------|

Gt. 3 _____1/2b
| |
e|----0--0-0-0-0-0-0-0-0-0-0-0-0-0-0-0-0-0-0-0-0-0-0-0-0-0-0-0-0-0-0-0-------|
B|----0--0-0-0-0-0-0-0-0-0-0-0-0-0-0-0-0-0-0-0-0-0-0-0-0-0-0-0-0-0-0-0-------|
G|---11-11-9-9-8-8-6-6/9-9-8-8-6-6-4-4/6-6-4-4-1-1/4-4/6-6-4-4/6-6-6-4-------|
D|---------------------------------------------------------------------------|
A|---------------------------------------------------------------------------|
D|---------------------------------------------------------------------------|
"Don't wanna be your monkey wrench...." "....fall in fall out.."


Outro 1x

Gt. 1 & 2
e|---------------------------------------------------------------------------|
B|---------------------------------------------------------------------------|
G|-----4--4--4--4--4--4--4--4--4--4--4--4--4--4--4---------------------------|
D|-----4--4--4--4--4--4--4--4--4--4--4--4--4--4--4--4--2--2--------x--4------|
A|-----2--2--2--2--2--2--2--2--2--2--2--2--2--2--2--4--2--2--------x--4------|
D|--------------------------------------------------4--2--2--/14--x--4-------|

e|---------------------------------------------------------------------------|
B|---------------------------------------------------------------------------|
G|----------------------------------------------------5--4-------------------|
D|----2--2--------x--4--2--2--4--2--4--2--2--4--2--2--5--4---------END-------|
A|----2--2--------x--4--2--2--4--2--4--2--2--4--2--2--3--2-------------------|
D|----2--2--/14--x---4--2--2--4--2--4--2--2--4--2--2-------------------------|


Msss eeen beetje verwarrend allemaal. maar luister gewoon ff naar het liedje
Dan kom je dr wss wel uit

ProTabs promo.jpg

Onbeperkt en gratis toegang tot alle 25.000
Tabs & Chords en direct meespelen met

Artiest Liedje

...

Gitaarakkoorden foo fighters - Monkey wrench

Dankzij de bladmuziek op deze pagina wordt het een stuk makkelijker om met de gitaar mee te spelen met Monkey wrench van foo fighters De ProTabs van Gitaartabs worden door onze professionele gitaardocenten samengesteld. De tabs en chords zijn door leden zelf geplaatst. Deze undefined van foo fighters met Monkey wrench is voor je geschreven door [b]lack[a]ngel

Tabs & Chords van foo fighters - Monkey wrench

Bij de ProTabs delen we niet alleen de tablatuur maar ook de speelwijze van Monkey wrench Met een beetje gitaar ervaring moet je dit gitaarliedje zeker kunnen spelen, maar als het niet lukt zijn we er altijd om je te helpen. Door een gratis account aan te maken krijg je niet alleen toegang tot deze tab ,akkoorden & tabs van Monkey wrench maar kun je ook onbeperkt meespelen met een van de meer dan 25.000 andere tabs & chords in onze database.

Plaats opmerking

Beoordeel deze song

Rate UsDon’t love itNot greatGoodGreatLove itRate Us

Bedankt voor je beoordeling!