Wolves

Gitaarliedjes, tabs & akkoorden (chords) Wolves - garth brooks

Songtype: Tab

arrow&v

Markeer als favoriet

Favoriet

Gemarkeerd als favoriet

Capo:

0

garth brooks

garth brooks

Song
Album
Categorie

Wolves

Downloads
2747
Niveau
1

Geplaatst door
rick h. and john f.
ProTabs-promo.jpg

D D/F# G Asus

E|---------0---------------------0----------------------------------------|
B|-------3---3-------0-----0-3--------------------------------------------|
G|-----2---------2-------0------------------------------------------------|
D|---0---------0---0---0-------2---2--------------------------------------|
A|---------------------------0--------------------------------------------|
E|-----------2-------3----------------------------------------------------|

D D/F# G

E|---------0-----------------3--------------------------------------------|
B|-------3---3-------0-----0----------------------------------------------|
G|-----2---------2-------0------------------------------------------------|
D|---0---------0---0---0--------------------------------------------------|
A|------------------------------------------------------------------------|
E|-----------2-------3-------3--------------------------------------------|

D D/F# G Asus
January's always bitter, ......
E|---------2----------------------------------------------------------0---|
B|-------3---------3--------0-----0-----------------------------3---------|
G|-----2---------2--------------0-----------------------------------0-----|
D|---0---------0--------------0-----------------------------------2-------|
A|--------------------------------------------------------------0---------|
E|-----------2--------------3---------------------------------------------|

D D/F# G Asus

E|---------2-----------------------0--------------------------------------|
B|-------3---3-------0-----0-3--------------------------------------------|
G|-----2---------2-------0-------0----------------------------------------|
D|---0---------0---0---0-------2------------------------------------------|
A|---------------------------0--------------------------------------------|
E|-----------2-------3----------------------------------------------------|

D D/F# G A D/F# .39
The wind aint quit ........
E|---0h2---2-----------------3-----------------------0-------0-----2------|
B|-------3---------3-0-----0-------0-2-----2-3-----3-------2-------3------|
G|-----2---------2-------0-------0-------2-------2-------2-----2-------2--|
D|---0---------0-------0-------0-------2-------2-------2------------------|
A|-----------------------------------0-------0-------0--------------------|
E|-----------2-------3-------3-------------------------------------2------|

G G/A A
I been .....
E|---3--------3-----------------------------------------------------------|
B|---------0-------------------------3--2------2--3-----------------------|
G|-------0-------0---------------------------2----------------------------|
D|-----0-------0---------------------------2------------------------------|
A|-----------------------------------2--0---------------------------------|
E|---3--------------------------------------------------------------------|

D D
... ..... and I spent (.53 on CD)
E|-----3-2-------0-----3----3-h5p3-2------2-------------------------------|
B|-----------3-----3-------3------------3---------------------------------|
G|---2-----2---2-----2---3----h5p3----2-----------------------------------|
D|-2-------------------5-----------0--------------------------------------|
A|-----2-0----------------------------------------------------------------|
E|------------------------------------------------------------------------|

D Asus A7
the morning ....

E|-------0---0------------------------------------------------------------|
B|---------3-------3-2-----2----------------------------------------------|
G|-----2---------0-------0------------------------------------------------|
D|---0---------2-------2--------------------------------------------------|
A|-----------0-------0----------------------------------------------------|
E|------------------------------------------------------------------------|

1:00 1:05

D D/F# G G

E|---------0-----------------3--------------------------------------------|
B|-------3---3-------0-----0----------------------------------------------|
G|-----2---------2-------0------------------------------------------------|
D|---0---------0---0---0--------------------------------------------------|
A|------------------------------------------------------------------------|
E|-----------2-------3-------3--------------------------------------------|

D D/F# G Asus
Charley Barton ......

E|---------2-0---------------------0--------------------------------------|
B|-------3-------3---0-----0-3---3----------------------------------------|
G|-----2-----------------0------------------------------------------------|
D|---0---------0---0---0-------2------------------------------------------|
A|---------------------------0--------------------------------------------|
E|-----------2-------3----------------------------------------------------|



good-bye

1:15 D G

E|---2-----2-----------------------0--------------------------------------|
B|-------3---3-----3-0-----0-3---3----------------------------------------|
G|-----2---------2-------0------------------------------------------------|
D|---0---------0-------0-------2------------------------------------------|
A|---------------------------0--------------------------------------------|
E|-----------2-------3----------------------------------------------------|

D G
said ......
E|---2---2-----------3-------3--------------------------------------------|
B|-----------------3-------0-------0--------------------------------------|
G|-----2---2-----2-------0-------0----------------------------------------|
D|---0---------0-------0-------0------------------------------------------|
A|------------------------------------------------------------------------|
E|-----------2-------3-------3--------------------------------------------|

A Asus D/F#

(1.28 on cd) years were just too dry......
E|-----------------0-------2----------------------------------------------|
B|-2-----2-3-----3-------2---3--------------------------------------------|
G|-----2-------2-------2---2---2------------------------------------------|
D|---2-------2-------2----------------------------------------------------|
A|-0-------0-------0------------------------------------------------------|
E|-------------------------2----------------------------------------------|

G A A D D
And I promised .....
E|---3--------3------0-------0-------2-------0-------3-----3---3-2-----2--|
B|---------0-------0-------2-------2-----3-------3-------3----3-3----3----|
G|-------0-------0-------2-------2-----2---2---2---2---3-----3-----2------|
D|-----0-------0-------2-------2-----0---------------5-----------0--------|
A|-------------------0----------------------------------------------------|
E|---3--------------------------------------------------------------------|

D A7
spent ......
E|---2---0---0------------------------------------------------------------|
B|---------3-------2-----2------------------------------------------------|
G|-----2---------0-----0--------------------------------------------------|
D|---0---------2-----2----------------------------------------------------|
A|-----------0-----0------------------------------------------------------|
E|------------------------------------------------------------------------|

D D G A
1;52 Lord ......
E|-------0------------------------0----------------3------------0---------|
B|---3----------3-------------3----------3--------chorus--------2---------|
G|-2---2------2----2--------2---2------2---2-------0----strum---2---------|
D|0------------------------------------------------0------------2---------|
A|-------------------------------------------------2------------0---------|
E|-------------------------------------------------3----------------------|


D G D Em A
E|---S-----------------------------S--------------------------------------|
B|-----T-----------------------------T------------------------------------|
G|-------R-----------------------------R----------------------------------|
D|---------U-----------------------------U--------------------------------|
A|-----------M-----------------------------M------------------------------|
E|------------------------------------------------------------------------|

D G A D G D Em D
E|---------------3------0------2--------3-------2--0-------------------2--|
B|---S-----------0------2------3--------0-------3--0-------------------3--|
G|-----T---------0------2------2--------0-------2--1-------------------2--|
D|-------R-------0------2------0--------0-------0--2-------------------0--|
A|---------U-----2------0---------------2----------2-------------------0--|
E|-----------M---3----------------------3----------0----------------------|

Asus A
E|--------------------------0---------O-------------------------------------
|
B|---S----------------------3---------2-------------------------------------
|
G|-----T--------------------2---------2-------------------------------------
|
D|-------R------------------2---------2-------------------------------------
|
A|---------U----------------0---------0-------------------------------------
|
E|-----------M--------------0----------------------------------------------|


D D/F# G Asus
(2:51)CD I dont mean .....

E|--------00h2---------------------0--------------------------------------|
B|-------3-------3---0-----0-3--------------------------------------------|
G|-----2-------2---2-----0-------0----------------------------------------|
D|---0-----------------0-------2------------------------------------------|
A|---------------------------0--------------------------------------------|
E|-----------2-------3----------------------------------------------------|


D D/F# G Asus
thru

E|--------00h2---------------------0--------------------------------------|
B|-------3-------3---0-----0-3--------------------------------------------|
G|-----2-------2---2-----0-------0----------------------------------------|
D|---0-----------------0-------2------------------------------------------|
A|---------------------------0--------------------------------------------|
E|-----------2-------3----------------------------------------------------|

D G G A Asus A D/F#
(3:04 onCD)and I know .......
E|---0h2---2-2-------3-------3-----------------------0-------0---2--------|
B|-------3---------3-------0-------0-2-----2-3-----3-------2-----3--------|
G|-----2---------2-------0-------0-------2-------2-------2-----2---2------|
D|---0---------0-------0-------0-------2-------2-------2------------------|
A|-----------------------------------0-------0-------0--------------------|
E|-----------2-------3-------3-----------------------------------2--------|



(3:15 on Cd)

G G/A A
But tonight .......
E|---3--------3-------------------------0---------0-----------------------|
B|---------0-----------------------------------2--------2-----------------|
G|-------0-------0-------------------0h2-----2--------2-------------------|
D|-----0-------0---------------------------2--------2---------------------|
A|-----------------------------------2--0---------------------------------|
E|---3--------------------------------------------------------------------|

( )optional note****
(3:23 on CD) and I ......
E|-----------2-------3-----3-----3-----------0h2--0---0-------------------|
B|---3-----3-----3-------3-----3---3-----3-------3--3-------3-2-----2-----|
G|-------4-----4-------3-----3---------2---2----2---------0-------0-------|
D|-----4-----------4-5------(2)------0------------------2-------2---------|
A|---2-------0----------------------------------------0-------------------|
E|------------------------------------------------------------------------|


the ones .......
(strum this part)
( D / / / G / / / D /// / A7 )
E|---2--------3------2--------0-------------------------------------------|
B|---3-s------0------3--------2-------------------------------------------|
G|---2--t-----0------2--------0-------------------------------------------|
D|---0---r----0------0--------2-------------------------------------------|
A|---0----u---2------0--------0-------------------------------------------|
E|---------m--3-----------------------------------------------------------|

D G G/A D/F#
3:52

E|------0---------------------0h2-----------------------------------------|
B|----3---3-----0-----0-3--5--3-------------------------------------------|
G|--2--------2------0------0--2-------------------------------------------|
D|0---------0-0---0--------x--0-------------------------------------------|
A|----------------------2--4--0-------------------------------------------|
E|--------2-----3-------------2---END-------------------------------------|

---------------------------------------------------------------------------
Chords: I think this is all of the chords used in this song.you have to
watch the G chords there are 4 different ones and I have tried to
let you know where they are.


A XO222O Em O221OO
Asus XO2230 G 3XXXOX or G 3XXXX3
A7 X02O2O G/A X2XX3X
D X0O232 (chorus G) 32OOO3
D/F# 2OO232 Bm x24432

ProTabs promo.jpg

Onbeperkt en gratis toegang tot alle 25.000
Tabs & Chords en direct meespelen met

Artiest Liedje

...

Gitaarakkoorden garth brooks - Wolves

Dankzij de bladmuziek op deze pagina wordt het een stuk makkelijker om met de gitaar mee te spelen met Wolves van garth brooks De ProTabs van Gitaartabs worden door onze professionele gitaardocenten samengesteld. De tabs en chords zijn door leden zelf geplaatst. Deze undefined van garth brooks met Wolves is voor je geschreven door rick h. and john f.

Tabs & Chords van garth brooks - Wolves

Bij de ProTabs delen we niet alleen de tablatuur maar ook de speelwijze van Wolves Met een beetje gitaar ervaring moet je dit gitaarliedje zeker kunnen spelen, maar als het niet lukt zijn we er altijd om je te helpen. Door een gratis account aan te maken krijg je niet alleen toegang tot deze tab ,akkoorden & tabs van Wolves maar kun je ook onbeperkt meespelen met een van de meer dan 25.000 andere tabs & chords in onze database.

Plaats opmerking

Verstuur

Beoordeel deze song

Rate UsDon’t love itNot greatGoodGreatLove itRate Us

Bedankt voor je beoordeling!