Zorba the greek

Gitaarliedjes, tabs & akkoorden (chords) Zorba the greek - gipsy king

Songtype: Tab

arrow&v

Markeer als favoriet

Favoriet

Gemarkeerd als favoriet

Capo:

0

gipsy king

gipsy king

Song
Album
Categorie

Zorba the greek

Downloads
836
Niveau
2
Geplaatst door
sander
ProTabs-promo.jpg

E||--------4-------4---------4-------4----||
B||--------4-------4---------4-------4----||
G||-------------------------------------------||
D||--------------------------------------------||
A||------------6-------------------6---------||
E||----4-----------------4-------------------||


E------|----------------------------------|----------------------------|--------------------------|
B------|----------------------------------|----------------------------|--------------------------|
G---7-|8---------7-8-------10-8-7-|7-8-------7-8--------5-|6-----8-6-5-5-6-----|
D------|----------------------------------|-----------------------------|--------------------------|
A------|----------------------------------|-----------------------------|--------------------------|
E------|----------------------------------|-----------------------------|--------------------------|

E-10-|11-----10-11-----13-11-10-|10-11------10-11------8-|9------11-9--8-8-9-----|
B------|--------------------------------------|---------------------------------|------------------------------|
G------|--------------------------------------|---------------------------------|------------------------------|
D------|--------------------------------------|---------------------------------|------------------------------|
A------|--------------------------------------|---------------------------------|------------------------------|
E------|--------------------------------------|---------------------------------|------------------------------|

E--7-|8-----13-11-9--8-9--11--9-----11-9--8-6-|-8-9-8----------------|
B-----|--------------------------------------------------------|-------------------------|
G-----|--------------------------------------------------------|-------------------------|
D-----|--------------------------------------------------------|-------------------------|
A-----|--------------------------------------------------------|-------------------------|
E-----|--------------------------------------------------------|-------------------------|

E--10-|11-----10-11----13-11-|10-11-----10-11-------8-|9------11-9-8-9--------|
B-------|--------------------------------|---------------------------------|-----------------------------|
G-------|--------------------------------|---------------------------------|-----------------------------|
D-------|--------------------------------|----------------------------------|----------------------------|
A-------|--------------------------------|----------------------------------|----------------------------|
E-------|--------------------------------|----------------------------------|----------------------------|

E--7-|8-----11-13-11-9--8-11-9------9--11--9-8-6-|9-8---------------|
B----|-------------------------------------------|------------------|
G----|-------------------------------------------|------------------|
D----|-------------------------------------------|------------------|
A----|-------------------------------------------|------------------|
E----|-------------------------------------------|------------------|


E-10-11-11-11-11-11-11-11-11-11-11-11-11-11-11-11-|-10-11-11-11-11-11-11-11-11-11-11-11-11-11-11-13-11-10--|
B-------------------------------------------------|--------------------------------------------------------|
G-------------------------------------------------|--------------------------------------------------------|
D-------------------------------------------------|--------------------------------------------------------|
A-------------------------------------------------|--------------------------------------------------------|
E-------------------------------------------------|--------------------------------------------------------|

E---10-11-11-11-11-11-11-11-11-11-11-11-11-11-11-11-|-8-9-9-9-9-9-9-9-9-9-9-9-9-9-9-11-9---|
B---------------------------------------------------|--------------------------------------|
G---------------------------------------------------|--------------------------------------|
D---------------------------------------------------|--------------------------------------|
A---------------------------------------------------|--------------------------------------|
E---------------------------------------------------|--------------------------------------|

E--8-9--9--9--9--9--9--9--9--9--9--9--9--9--9--9--|-10-11-11-11-11-11-11-11-11-11-11-11-11-11-11-10-11--|
B-------------------------------------------------|-----------------------------------------------------|
G-------------------------------------------------|-----------------------------------------------------|
D-------------------------------------------------|-----------------------------------------------------|
A-------------------------------------------------|-----------------------------------------------------|
E-------------------------------------------------|-----------------------------------------------------|

E--8-9--9--9--9--9--9--9--9--9--9--9--9--9--9-8-6--|
B--------------------------------------------------|
G--------------------------------------------------|
D--------------------------------------------------|
A--------------------------------------------------|
E--------------------------------------------------|

e--7-8-8-8-8-8-8-8-8-8-8-8-8-8-8-8--||8---------------------|
b-----------------------------------||----------------------|
g-----------------------------------||----------------------|
D-----------------------------------||----------------------|
A-----------------------------------||----------------------|
E-----------------------------------||----------------------|

e---8-8-8-8-9-8-6-8-6-8---|---8-8-8-8-9-8-6-8-6-8---|---8-8-8-8-9-8-6-8-6-11---|
b-------------------------|-------------------------|--------------------------|
g-------------------------|-------------------------|--------------------------|
D-------------------------|-------------------------|--------------------------|
A-------------------------|-------------------------|--------------------------|
E-------------------------|-------------------------|--------------------------|

E---11-13-9-8-9-8-6-8-6-----||---11-13-9-8-9-8-6-8-6---|
b-----------------------9---||-----------------------9-|
g---------------------------||-------------------------|
D---------------------------||-------------------------|
A---------------------------||-------------------------|
E---------------------------||-------------------------|

e---20---20-18--16--|15-16---13-11-13-11----11-------|
b-------------------|--------------------14---14-13--|
g-------------------|--------------------------------|
D-------------------|--------------------------------|
A-------------------|--------------------------------|
E-------------------|--------------------------------|

e---20---20-18-20-16-18-|15-16-13-15-11-13-11----11\8----|
b-----------------------|---------------------14---------|
g-----------------------|--------------------------------|
D-----------------------|--------------------------------|
A-----------------------|--------------------------------|
E-----------------------|--------------------------------|




ProTabs promo.jpg

Onbeperkt en gratis toegang tot alle 25.000
Tabs & Chords en direct meespelen met

Artiest Liedje

...

Gitaarakkoorden gipsy king - Zorba the greek

Dankzij de bladmuziek op deze pagina wordt het een stuk makkelijker om met de gitaar mee te spelen met Zorba the greek van gipsy king De ProTabs van Gitaartabs worden door onze professionele gitaardocenten samengesteld. De tabs en chords zijn door leden zelf geplaatst. Deze undefined van gipsy king met Zorba the greek is voor je geschreven door sander

Tabs & Chords van gipsy king - Zorba the greek

Bij de ProTabs delen we niet alleen de tablatuur maar ook de speelwijze van Zorba the greek Met een beetje gitaar ervaring moet je dit gitaarliedje zeker kunnen spelen, maar als het niet lukt zijn we er altijd om je te helpen. Door een gratis account aan te maken krijg je niet alleen toegang tot deze tab ,akkoorden & tabs van Zorba the greek maar kun je ook onbeperkt meespelen met een van de meer dan 25.000 andere tabs & chords in onze database.

Plaats opmerking

Beoordeel deze song

Rate UsDon’t love itNot greatGoodGreatLove itRate Us

Bedankt voor je beoordeling!