Crazy

Gitaarliedjes, tabs & akkoorden (chords) Crazy - gnarls barkley

Songtype: Tab

arrow&v

Markeer als favoriet

Favoriet

Gemarkeerd als favoriet

Capo:

0

gnarls barkley

gnarls barkley

Song
Album
Categorie

Crazy

Downloads
425
Niveau
2
Geplaatst door
sakoke
ProTabs-promo.jpg

GNARLS BARKLEY
CRAZY

INTRO
E-------------------------------------------------|
B-------------------------------------------------|
G-------------------------------------------------|
D-------------------------------------------------|
A-3-33-33-333-6-66-66-666-------------------------|
E-------------------------4-44-44-444-3-33-33-333-|

VERSE
E
B-------------------------------------------------|
G-------------------------------------------------|
D-------------------------------------------------|
A-3-33-33-333-6-66-66-666-------------------------|
E-------------------------4-44-44-444-3-33-33-333-|
I REMEBER WHEN I REMEBER I REMEBER WHEN I LOST MY MIND THERE WAS SOMTHING SO PLEASANT
THAT PHASE. EVEN YOUR EMOTIONS HAD AN ECHO IN SO MUCH SPACE

E-------------------------------------------------|
B-------------------------------------------------|
G-------------------------------------------------|
D-------------------------------------------------|
A-3-33-33-333-6-66-66-666-------------------------|
E-------------------------4-44-44-444-3-33-33-333-|
AND WHEN YOU'RE OUT THERE WITHOUT CARE, YEAH, I WAS OUT OF TOUCH BUT IT WASN'T BECAUSE I
KNOW ENOUGH T JUST KNEW TOO MUCH


CHORUS
E-----------------------------------------------|
B-13----11----13--------------------------------|
G-------------------12--------------------------|
D-----------------------------------------------|
A-----------------------------------------------|
E-----------------------------------------------|
DOES THAT MAKE ME CRAZY DOES THAT MAKE ME CRAZY DOES THAT MAKE ME CRAZY PROBLEY

VERSE
E-------------------------------------------------|
B-------------------------------------------------|
G-------------------------------------------------|
D-------------------------------------------------|
A-3-33-33-333-6-66-66-666-------------------------|
E-------------------------4-44-44-444-3-33-33-333-|
AND I HOPE THAT YOUR HAVING THE TIME OF YOUR LIFE BUT THINK TWICE, THATS MY ONLY ADVICE
ON NOW, WHO DO YOU, WHO DO YOU, WHO DO YOU, WHO DO YOU THINK YOU ARE HA HA HA BLESS YOUR
YOU THINK YOUR IN CONTROL

CHORUS
E-----------------------------------------------|
B-13----11----13--------------------------------|
G-------------------12--------------------------|
D-----------------------------------------------|
A-----------------------------------------------|
E-----------------------------------------------|
WELL I THINK YOU'RE CRAZY I THINK YOUR CRAZY I THINK YOUR CRAZY JUST LIKE ME

VERSE
E-------------------------------------------------|
B-------------------------------------------------|
G-------------------------------------------------|
D-------------------------------------------------|
A-3-33-33-333-6-66-66-666-------------------------|
E-------------------------4-44-44-444-3-33-33-333-|
MY HEROS HAD THE HEART TO LOSE THEIR LIVES OUT ON A LIMB AND ALL I REMEMBER IS THINKING,
WHANT TO BE LIKE THEM EVER SINCE I WAS LITTLE, EVER SINCE I WAS LITTLE IT LOOKED LIKE
AND IT'S NO CONCIDER I'VE COME AND I CAN DIE WHEN I'M DONE

CHORUS
E----------------------------------------------|
B-13----11----13-------------------------------|
G-------------------12-------------------------|
D----------------------------------------------|
A----------------------------------------------|
E----------------------------------------------|
MAYBE I'M CRAZY MAYBE YOU'RE CRAZY MAYBE WE'RE CRAZY PROBABLY

ProTabs promo.jpg

Onbeperkt en gratis toegang tot alle 25.000
Tabs & Chords en direct meespelen met

Artiest Liedje

...

Gitaarakkoorden gnarls barkley - Crazy

Dankzij de bladmuziek op deze pagina wordt het een stuk makkelijker om met de gitaar mee te spelen met Crazy van gnarls barkley De ProTabs van Gitaartabs worden door onze professionele gitaardocenten samengesteld. De tabs en chords zijn door leden zelf geplaatst. Deze undefined van gnarls barkley met Crazy is voor je geschreven door sakoke

Tabs & Chords van gnarls barkley - Crazy

Bij de ProTabs delen we niet alleen de tablatuur maar ook de speelwijze van Crazy Met een beetje gitaar ervaring moet je dit gitaarliedje zeker kunnen spelen, maar als het niet lukt zijn we er altijd om je te helpen. Door een gratis account aan te maken krijg je niet alleen toegang tot deze tab ,akkoorden & tabs van Crazy maar kun je ook onbeperkt meespelen met een van de meer dan 25.000 andere tabs & chords in onze database.

Plaats opmerking

Beoordeel deze song

Rate UsDon’t love itNot greatGoodGreatLove itRate Us

Bedankt voor je beoordeling!