Running blind(acoustic)

Gitaarliedjes, tabs & akkoorden (chords) running blind(acoustic) - godsmack

Songtype: Tab

arrow&v

Markeer als favoriet

Favoriet

Gemarkeerd als favoriet

Capo:

0

godsmack

godsmack

Song
Album
Categorie

running blind(acoustic)

Downloads
160
Niveau
3
the other side

Geplaatst door
gitaartabs
ProTabs-promo.jpg

intro
|--------0-0-0--------0-0-------0------0-0-0----------------------------------------------
|--------0-0-0--------2-2-------3------0-0-0---------------------------------------------
|--------0-0-0------- 3-3-------0------0-0-0---------------------------------------------
|--------2-2-2------- 0-0-------0------2-2-2----------------------------------------------
|--------2-2-2--------0-0-------0------3-3-3----------------------------------------------
|--------0-0-0--------0-0-------0------0-0-0----------------------------------------------

Refrein
e|---------------------------------------------------------------------|
B|---------------------------------------------------------------------|
G|--------------6--------8--------6-------8---------4--------2---|
D|--------------7--------9--------7-------9---------5--------3---|
A|--------------7--------9--------7-------9---------5--------3---|
E|--------------5--------7--------5--------7--------3--------1---|

Solo
e|-----------------------------------------------------------------------------------------------|
B|---(3)3/(5)5/(7)7--8--7-5-3-3/5----5---5/(7)7---8--7-5-3-3/5-------------|
G|------------------------------------------------------------------------------------------------|
D|-----------------------------------------------------------------------------------------------|
A|-----------------------------------------------------------------------------------------------|
E|-----------------------------------------------------------------------------------------------|

e|------------------------------------------------------------------------------------------------------|
B|----12-12--8-8--10-10--7-7--8--8/10----12--12--12 10--8--7--5--------------|
G|-----------------------------------------------------------------------------------------------------|
D|-----------------------------------------------------------------------------------------------------|
A|-----------------------------------------------------------------------------------------------------|
E|-----------------------------------------------------------------------------------------------------|

e|--------------------------------------------------------------------------------------------------------------|
B|--------------------------------------------------------------------------------------------------------------|
G|-----14-14-14-14-14-13-11-9-9/14-14-14-14-14-16-14-13-11--------------------|
D|--------------------------------------------------------------------------------------------------------------|
A|--------------------------------------------------------------------------------------------------------------|
E|--------------------------------------------------------------------------------------------------------------|

e|-------------------------------------------------------------------------------------------------------------------|
B|-------------------------------------------------------------------------------------------------------------------|
G|----14-14-14-14-14-13-11-9-9/12-12-12-12-12-12-12/14-14-14/1------------------|
D|-------------------------------------------------------------------------------------------------------------------|
A|-------------------------------------------------------------------------------------------------------------------|
E|-------------------------------------------------------------------------------------------------------------------|

tekst
Can’t find the answers
I’ve been crawling on my knees
Looking for anything
To keep me from drowning
Promises have been turned to lies
Can’t even be honest inside
I'm running backwards
Watching my life wave me goodbye

Running blind
I’m running blind
Somebody help me see I’m running blind

Searching for nothing
Wondering if I’ll change
I’m trying everything
But everything still stays the same
I thought if I showed you I could fly
Wouldn’t need anyone by my side
I'm running backwards
With broken wings I know I’ll die

Running blind
I’m running blind
Somebody help me see I’m running blind
Running blind
Running blind
Running blind

I can’t find the answers
I’ve been crawling on my knees
Looking for anything
To keep me from drowning
I’m running blind
Running blind
Running blind
Running blind
Running blind
Running blind
Running blind
Running blind
Running blind

ProTabs promo.jpg

Onbeperkt en gratis toegang tot alle 25.000
Tabs & Chords en direct meespelen met

Artiest Liedje

...

Gitaarakkoorden godsmack - running blind(acoustic)

Dankzij de bladmuziek op deze pagina wordt het een stuk makkelijker om met de gitaar mee te spelen met running blind(acoustic) van godsmack De ProTabs van Gitaartabs worden door onze professionele gitaardocenten samengesteld. De tabs en chords zijn door leden zelf geplaatst. Deze undefined van godsmack met running blind(acoustic) is voor je geschreven door gitaartabs

Tabs & Chords van godsmack - running blind(acoustic)

Bij de ProTabs delen we niet alleen de tablatuur maar ook de speelwijze van running blind(acoustic) Met een beetje gitaar ervaring moet je dit gitaarliedje zeker kunnen spelen, maar als het niet lukt zijn we er altijd om je te helpen. Door een gratis account aan te maken krijg je niet alleen toegang tot deze tab ,akkoorden & tabs van running blind(acoustic) maar kun je ook onbeperkt meespelen met een van de meer dan 25.000 andere tabs & chords in onze database.

Plaats opmerking

Verstuur

Beoordeel deze song

Rate UsDon’t love itNot greatGoodGreatLove itRate Us

Bedankt voor je beoordeling!