Serenity

Gitaarliedjes, tabs & akkoorden (chords) Serenity - godsmack

Songtype: Tab

arrow&v

Markeer als favoriet

Favoriet

Gemarkeerd als favoriet

Capo:

0

godsmack

godsmack

Song
Album
Categorie

Serenity

Downloads
769
Niveau
2
Geplaatst door
gitaartabs
ProTabs-promo.jpg

Guitar Tuning : DADGBE (Dropped D)

E||------------------------|--------------------------|------------------------|
B||------------------------|--------------------------|------------------------|
G||-------7-------7-----7--|-----7--------7--------7--|-------7-------7-----7--|
D||-------0-------0-----0--|-----0--------0--------0--|-------0-------0-----0--|
A||------------------------|--------------------------|------------------------|
D||--0-------0-------0-----|--3-----3--6-----6--3-----|--0-------0-------0-----|



--------------------------|------------------------|--------------------------|
--------------------------|------------------------|--------------------------|
-----7--------7--------7--|-------7-------7-----7--|-----7--------7--------7--|
-----0--------0--------0--|-------0-------0-----0--|-----0--------0--------0--|
--------------------------|------------------------|--------------------------|
--3-----3--6-----6--3-----|--0-------0-------0-----|--3-----3--6-----6--3-----|



------------------------|----------------------|------------------------|
------------------------|----------------------|------------------------|
-------7-------7-----7--|-----7-----7----------|-------7-------7-----7--|
-------0-------0-----0--|-----0----------------|-------0-------0-----0--|
------------------------|----------------------|------------------------|
--0-------0-------0-----|--3-----3--6----------|--0-------0-------0-----|



--------------------------|------------------------|--------------------------|
--------------------------|------------------------|--------------------------|
-----7--------7--------7--|-------7-------7-----7--|-----7--------7--------7--|
-----0--------0--------0--|-------0-------0-----0--|-----0--------0--------0--|
--------------------------|------------------------|--------------------------|
--3-----3--6-----6--3-----|--0-------0-------0-----|--3-----3--6-----6--3-----|



------------------------|--------------------------|------------------------|
------------------------|--------------------------|------------------------|
-------7-------7-----7--|-----7--------7--------7--|-------7-------7-----7--|
-------0-------0-----0--|-----0--------0--------0--|-------0-------0-----0--|
------------------------|--------------------------|------------------------|
--0-------0-------0-----|--3-----3--6-----6--3-----|--0-------0-------0-----|



----------------------||-------------------------|--------------------------|
----------------------||-------------------------|--------------------------|
-----7-----7----------||*-------7-------7-----7--|-----7--------7--------7--|
-----0----------------||*-------0-------0-----0--|-----0--------0--------0--|
----------------------||-------------------------|--------------------------|
--3-----3--6----------||---0-------0-------0-----|--3-----3--6-----6--3-----|



------------------------|--------------------------|------------------------|
------------------------|--------------------------|------------------------|
-------7-------7-----7--|-----7--------7--------7--|-------7-------7-----7--|
-------0-------0-----0--|-----0--------0--------0--|-------0-------0-----0--|
------------------------|--------------------------|------------------------|
--0-------0-------0-----|--3-----3--6-----6--3-----|--0-------0-------0-----|



--------------------------|------------------------|
--------------------------|------------------------|
-----7--------7--------7--|-------7-------7-----7--|
-----0--------0--------0--|-------0-------0-----0--|
--------------------------|------------------------|
--3-----3--6-----6--3-----|--0-------0-------0-----|



---------------------------||-------------------------|
---------------------------||-------------------------|
-----7--------7--------7--*||-----------7-------------|
-----0--------0--------0--*||--------5--5----5-----5--|
---------------------------||-----5-------------5-----|
--3-----3--6-----6--3------||--5----------------------|



---------------------------|-------------------------|
---------------------------|-------------------------|
--------10--------8-----5--|-----------7-------------|
--------8---------6-----3--|--------5--5----5-----5--|
-----8---------6-----------|-----5-------------5-----|
--8---------6--------3-----|--5----------------------|



---------------------------|-------------------------|
---------------------------|-------------------------|
--------10--------8-----5--|-----------7-------------|
--------8---------6-----3--|--------5--5----5-----5--|
-----8---------6-----------|-----5-------------5-----|
--8---------6--------3-----|--5----------------------|



---------------------------|-------------------------|
---------------------------|-------------------------|
--------10--------8-----5--|-----------7-------------|
--------8---------6-----3--|--------5--5----5-----5--|
-----8---------6-----------|-----5-------------5-----|
--8---------6--------3-----|--5----------------------|



------------------------------|------------------------|
------------------------------|------------------------|
--------10----------12-----8--|-------7-------7-----7--|
--------8-----------10-----6--|-------0-------0-----0--|
-----8----------10------------|------------------------|
--8---------10----------6-----|--0-------0-------0-----|



--------------------------|------------------------|--------------------------|
--------------------------|------------------------|--------------------------|
-----7--------7--------7--|-------7-------7-----7--|-----7--------7--------7--|
-----0--------0--------0--|-------0-------0-----0--|-----0--------0--------0--|
--------------------------|------------------------|--------------------------|
--3-----3--6-----6--3-----|--0-------0-------0-----|--3-----3--6-----6--3-----|



------------------------|--------------------------|------------------------|
------------------------|--------------------------|------------------------|
-------7-------7-----7--|-----7--------7--------7--|-------7-------7-----7--|
-------0-------0-----0--|-----0--------0--------0--|-------0-------0-----0--|
------------------------|--------------------------|------------------------|
--0-------0-------0-----|--3-----3--6-----6--3-----|--0-------0-------0-----|



----------------------||-------------------------|--------------------------|
----------------------||-------------------------|--------------------------|
-----7-----7----------||*-------7-------7-----7--|-----7--------7--------7--|
-----0----------------||*-------0-------0-----0--|-----0--------0--------0--|
----------------------||-------------------------|--------------------------|
--3-----3--6----------||---0-------0-------0-----|--3-----3--6-----6--3-----|



------------------------|--------------------------|------------------------|
------------------------|--------------------------|------------------------|
-------7-------7-----7--|-----7--------7--------7--|-------7-------7-----7--|
-------0-------0-----0--|-----0--------0--------0--|-------0-------0-----0--|
------------------------|--------------------------|------------------------|
--0-------0-------0-----|--3-----3--6-----6--3-----|--0-------0-------0-----|



--------------------------|------------------------|
--------------------------|------------------------|
-----7--------7--------7--|-------7-------7-----7--|
-----0--------0--------0--|-------0-------0-----0--|
--------------------------|------------------------|
--3-----3--6-----6--3-----|--0-------0-------0-----|



---------------------------||-------------------------|
---------------------------||-------------------------|
-----7--------7--------7--*||-----------7-------------|
-----0--------0--------0--*||--------5--5----5-----5--|
---------------------------||-----5-------------5-----|
--3-----3--6-----6--3------||--5----------------------|



---------------------------|-------------------------|
---------------------------|-------------------------|
--------10--------8-----5--|-----------7-------------|
--------8---------6-----3--|--------5--5----5-----5--|
-----8---------6-----------|-----5-------------5-----|
--8---------6--------3-----|--5----------------------|



---------------------------|-------------------------|
---------------------------|-------------------------|
--------10--------8-----5--|-----------7-------------|
--------8---------6-----3--|--------5--5----5-----5--|
-----8---------6-----------|-----5-------------5-----|
--8---------6--------3-----|--5----------------------|



---------------------------|-------------------------|
---------------------------|-------------------------|
--------10--------8-----5--|-----------7-------------|
--------8---------6-----3--|--------5--5----5-----5--|
-----8---------6-----------|-----5-------------5-----|
--8---------6--------3-----|--5----------------------|



------------------------------|------------------------|
------------------------------|------------------------|
--------10----------12-----8--|-------7-------7-----7--|
--------8-----------10-----6--|-------0-------0-----0--|
-----8----------10------------|------------------------|
--8---------10----------6-----|--0-------0-------0-----|



--------------------------|------------------------|--------------------------|
--------------------------|------------------------|--------------------------|
-----7--------7--------7--|-------7-------7-----7--|-----7--------7--------7--|
-----0--------0--------0--|-------0-------0-----0--|-----0--------0--------0--|
--------------------------|------------------------|--------------------------|
--3-----3--6-----6--3-----|--0-------0-------0-----|--3-----3--6-----6--3-----|



------------------------|--------------------------|------------------------|
------------------------|--------------------------|------------------------|
-------7-------7-----7--|-----7--------7--------7--|-------7-------7-----7--|
-------0-------0-----0--|-----0--------0--------0--|-------0-------0-----0--|
------------------------|--------------------------|------------------------|
--0-------0-------0-----|--3-----3--6-----6--3-----|--0-------0-------0-----|



----------------------|--0---------0----------|-------------0-----------|
----------------------|--3----3---------3-----|-------3--------3-----3--|
-----7-----7----------|--2-----------------2--|----------2--------2-----|
-----0----------------|--0--------------------|----0--------------------|
----------------------|-----------------------|-------------------------|
--3-----3--6----------|-----------------------|-------------------------|



-----------------------|----------------------|--0---------0----------|
-----------------------|----------------------|--3----3---------3-----|
------------7----------|-----------7----------|--2-----------------2--|
--6----6---------8--6--|------6-------8--6----|--0--------------------|
--6--------------------|----------------------|-----------------------|
--6--------------------|----------------------|-----------------------|



-------------0-----------|-----------------------|----------------------|
-------3--------3-----3--|-----------------------|----------------------|
----------2--------2-----|------------7----------|-----------7----------|
----0--------------------|--6----6---------8--6--|------6-------8--6----|
-------------------------|--6--------------------|----------------------|
-------------------------|--6--------------------|----------------------|



--0---------0----------|-------------0-----------|-----------------------|
--3----3---------3-----|-------3--------3-----3--|-----------------------|
--2-----------------2--|----------2--------2-----|------------7----------|
--0--------------------|----0--------------------|--6----6---------8--6--|
-----------------------|-------------------------|--6--------------------|
-----------------------|-------------------------|--6--------------------|



----------------------|--0---------0----------|-------------0-----------|
----------------------|--3----3---------3-----|-------3--------3-----3--|
-----------7----------|--2-----------------2--|----------2--------2-----|
------6-------8--6----|--0--------------------|----0--------------------|
----------------------|-----------------------|-------------------------|
----------------------|-----------------------|-------------------------|



-------------------|------------------|------------------------|
-------------------|------------------|------------------------|
-------------------|------------------|-------7-------7-----7--|
--6----------------|------------------|-------0-------0-----0--|
--6----------------|------------------|------------------------|
--6----------------|------------------|--0-------0-------0-----|



--------------------------|------------------------|--------------------------|
--------------------------|------------------------|--------------------------|
-----7--------7--------7--|-------7-------7-----7--|-----7--------7--------7--|
-----0--------0--------0--|-------0-------0-----0--|-----0--------0--------0--|
--------------------------|------------------------|--------------------------|
--3-----3--6-----6--3-----|--0-------0-------0-----|--3-----3--6-----6--3-----|



------------------------|--------------------------|------------------------|
------------------------|--------------------------|------------------------|
-------7-------7-----7--|-----7--------7--------7--|-------7-------7-----7--|
-------0-------0-----0--|-----0--------0--------0--|-------0-------0-----0--|
------------------------|--------------------------|------------------------|
--0-------0-------0-----|--3-----3--6-----6--3-----|--0-------0-------0-----|



--------------------------|------------------------|--------------------------|
--------------------------|------------------------|--------------------------|
-----7--------7--------7--|-------7-------7-----7--|-----7--------7--------7--|
-----0--------0--------0--|-------0-------0-----0--|-----0--------0--------0--|
--------------------------|------------------------|--------------------------|
--3-----3--6-----6--3-----|--0-------0-------0-----|--3-----3--6-----6--3-----|



------------------------|--------------------------|------------------------|
------------------------|--------------------------|------------------------|
-------7-------7-----7--|-----7--------7--------7--|-------7-------7-----7--|
-------0-------0-----0--|-----0--------0--------0--|-------0-------0-----0--|
------------------------|--------------------------|------------------------|
--0-------0-------0-----|--3-----3--6-----6--3-----|--0-------0-------0-----|



--------------------------|------------------------|----------------------|
--------------------------|------------------------|----------------------|
-----7--------7--------7--|-------7-------7-----7--|-----7-----7----------|
-----0--------0--------0--|-------0-------0-----0--|-----0----------------|
--------------------------|------------------------|----------------------|
--3-----3--6-----6--3-----|--0-------0-------0-----|--3-----3--6----------|



--0----------------||
--3----------------||
--2----------------||
--0----------------||
--0----------------||
--0----------------||

Tekst:
As I sit here and slowly close my eyes
I take another deep breath
And feel the wind pass through my body
I'm the one in your soul
Reflecting inner light
Protect the ones who hold you
Cradling your inner child

I need serenity
In a place where I can hide
I need serenity
Nothing changes, days go by

Where do we go when we just don't know
And how do we relight the flame when it's cold
Why do we dream when our thoughts mean nothing
And when will we learn to control

Tragic visions slowly stole my life
Tore away everything
Cheating me out of my time
I'm the one who loves you
No matter wrong or right
And every day I hold you
I hold you with my inner child

I need serenity
In a place where I can hide
I need serenity
Nothing changes, days go by

Where do we go when we just don't know
And how do we relight the flame when it's cold
Why do we dream when our thoughts mean nothing
And when will we learn to control

Where do we go when we just don't know
And how do we relight the flame when it's cold
Why do we dream when our thoughts mean nothing
And when will we learn to control

I need serenity [x2]

ProTabs promo.jpg

Onbeperkt en gratis toegang tot alle 25.000
Tabs & Chords en direct meespelen met

Artiest Liedje

...

Gitaarakkoorden godsmack - Serenity

Dankzij de bladmuziek op deze pagina wordt het een stuk makkelijker om met de gitaar mee te spelen met Serenity van godsmack De ProTabs van Gitaartabs worden door onze professionele gitaardocenten samengesteld. De tabs en chords zijn door leden zelf geplaatst. Deze undefined van godsmack met Serenity is voor je geschreven door gitaartabs

Tabs & Chords van godsmack - Serenity

Bij de ProTabs delen we niet alleen de tablatuur maar ook de speelwijze van Serenity Met een beetje gitaar ervaring moet je dit gitaarliedje zeker kunnen spelen, maar als het niet lukt zijn we er altijd om je te helpen. Door een gratis account aan te maken krijg je niet alleen toegang tot deze tab ,akkoorden & tabs van Serenity maar kun je ook onbeperkt meespelen met een van de meer dan 25.000 andere tabs & chords in onze database.

Plaats opmerking

Beoordeel deze song

Rate UsDon’t love itNot greatGoodGreatLove itRate Us

Bedankt voor je beoordeling!