Last of the american girls

Gitaarliedjes, tabs & akkoorden (chords) Last of the american girls - green day

Songtype: Tab

arrow&v

Markeer als favoriet

Favoriet

Gemarkeerd als favoriet

Capo:

0

green day

green day

Song
Album
Categorie

Last of the american girls

Downloads
357
Niveau
2
21st century breakdown

Geplaatst door
bram
ProTabs-promo.jpg

Start bij "She wears her overcoat"
e|---------------------------------------------------------------------------|
B|---------------------------------------------------------------------------|
G|---------------------------------------------------------------------------|
D|---------------------------------------------------------------------------|
A|-------------------------7777777-7-66-7-9--------------------------------------|
E|-7777777777777777-------------------------- 777777777777777--2222222222222222---|
^^^^^^^2x

refrein

gitaar 1
e|---------------------------------------------------------------------------|
B|---------------------------88888888----------------------------------------|
G|-------------------9999999999999999----------------------------------------|
D|-9999999999999999--9999999999999999--99999999--444-------------------------|
A|-9999999999999999--7777777777777777--99999999--444-------------------------|
E|-7777777777777777--------------------77777777--222-------------------------|

gitaar 2
e|---------------------------------------------------------------------------|
B|---------------------------------------------------------------------------|
G|-1616161616161616-1414141414141414-13131313-161616--13-1212121212121212----|
D|--x-x-x-x-x-x-x-x--x-x-x-x-x-x-x-x--x-x-x-x--x-x-x--x--x-x-x-x-x-x-x-x-----|
A|-1414141414141414-1212121212121212-11111111-141414--11-1010101010101010----|
E|---------------------------------------------------------------------------|

e|---------------------------------------------------------------------------|
B|---------------------------------------------------------------------------|
G|-1616161616161616-111111---------------------------------------------------|
D|--x-x-x-x-x-x-x-x-x-x-x----------------------------------------------------|
A|-1414141414141414-9-9-9----------------------------------------------------|
E|---------------------------------------------------------------------------|




gitaar 1
e|---------------------------------------------------------------------------|
B|---------------------------------------------------------------------------|
G|------9999-----------------------------------------------------------------|
D|-9999-9999-----------------------------------------------------------------|
A|-9999-7777-----------------------------------------------------------------|
E|-7777----------------------------------------------------------------------|

gitaar 2
e|---------------------------------------------------------------------------|
B|----7---9-7----------------------------------------------------------------|
G|-88---8--------------------------------------------------------------------|
D|---------------------------------------------------------------------------|
A|---------------------------------------------------------------------------|
E|---------------------------------------------------------------------------|
^^^pre-verse x4



gitaar 1
e|-----------------------------------------------------------------------------|
B|-----------------------------------------------------------------------------|
G|-----------------------------------------------------------------------------|
D|-------------------99999999-9-88-99-1111-------------------------------------|
A|-9999999999999999--77777777-7-66-77--9-9--9999999999999999--4444444444444444-|
E|-7777777777777777-------------------------7777777777777777--2222222222222222-|
^^^^^^x2
gitaar 2
e|--22--22--22--22------------------22--22--22--22--66--66--66--66-----------|
B|--44--44--44--44--55--55--55--55--44--44--44--44--77--77--77--77-----------|
G|--44--44--44--44--44--44--44--44--44--44--44--44--66--66--66--66-----------|
D|--44--44--44--44--22--22--22--22--44--44--44--44---------------------------|
A|---------------------------------------------------------------------------|
E|---------------------------------------------------------------------------|


refrein

Pre-verse x4


Solo x2

gitaar 1
e|-----------------------------------------------------------------------------|
B|-----------------------------------------------------------------------------|
G|----------------------------9-88-99-1111-------------------------------------|
D|-------------------99999999-x-xx-xx--x-x-------------------------------------|
A|-9999999999999999--77777777-7-66-77--9-9--9999999999999999--4444444444444444-|
E|-7777777777777777-------------------------7777777777777777--2222222222222222-|

gitaar 2
e|---------------------------------------------------------------------------|
B|---------4-5-4-------------4-5-4----------9-10-9------------9-10-9---------|
G|-----4---------4-------4---------4-----9---------9------9----------9-------|
D|---4---4-------------4---4-----------9--9-------------9---9----------------|
A|-2-----------------2---------------7----------------7----------------------|
E|---------------------------------------------------------------------------|

e|---------------------------------------------------------------------------|
B|---------4-5-4------------4-5-4--------------------------------------------|
G|-----4---------4------4---------4-----3---b4-3----3---b4-------------------|
D|---4---4------------4---4-----------4---4-------4---4----4-----------------|
A|-2----------------2--------------------------------------------------------|
E|---------------------------------------------------------------------------|


Chorus

gitaar 1
e|---------------------------------------------------------------------------|
B|---------------------------88888888----------------------------------------|
G|-------------------9999999999999999----------------------------------------|
D|-9999999999999999--9999999999999999--9999999999999999--4444444444444444----|
A|-9999999999999999--7777777777777777--9999999999999999--4444444444444444----|
E|-7777777777777777--------------------7777777777777777--2222222222222222----|

e|---------------------------------------------------------------------------|
B|---------------------------88888888----------------------------------------|
G|-------------------9999999999999999----------------------------------------|
D|-9999999999999999--9999999999999999--99999999--444-------------------------|
A|-9999999999999999--7777777777777777--99999999--444-------------------------|
E|-7777777777777777--------------------77777777--222-------------------------|


gitaar 2
e|---------------------------------------------------------------------------|
B|---------------------------------------------------------------------------|
G|-1616161616161616-1414141414141414-13131313-161616--13-1212121212121212----|
D|--x-x-x-x-x-x-x-x--x-x-x-x-x-x-x-x--x-x-x-x--x-x-x--x--x-x-x-x-x-x-x-x-----|
A|-1414141414141414-1212121212121212-11111111-141414--11-1010101010101010----|
E|---------------------------------------------------------------------------|

e|---------------------------------------------------------------------------|
B|---------------------------------------------------------------------------|
G|-1616161616161616-1414141414141414-1111111111111111-1515151515151515-------|
D|--x-x-x-x-x-x-x-x--x-x-x-x-x-x-x-x-x-x-x-x-x-x-x-x--x-x-x-x-x-x-x-x--------|
A|-1414141414141414-1212121212121212-9-9-9-9-9-9-9-9--1313131313131313-------|
E|---------------------------------------------------------------------------|

e|---------------------------------------------------------------------------|
B|---------------------------------------------------------------------------|
G|-1616161616161616-1414141414141414-13131313-161616--13-1212121212121212----|
D|--x-x-x-x-x-x-x-x--x-x-x-x-x-x-x-x--x-x-x-x--x-x-x--x--x-x-x-x-x-x-x-x-----|
A|-1414141414141414-1212121212121212-11111111-141414--11-1010101010101010----|
E|---------------------------------------------------------------------------|

e|---------------------------------------------------------------------------|
B|---------------------------------------------------------------------------|
G|-1616161616161616-111111---------------------------------------------------|
D|--x-x-x-x-x-x-x-x-x-x-x----------------------------------------------------|
A|-1414141414141414-9-9-9----------------------------------------------------|
E|---------------------------------------------------------------------------|

Pre-verse x8




songtekst

She puts her makeup on like graffiti on the walls of the heartland
She's got her little book of conspiracies right in her hand
She is paranoid like endangered species headed into extinction
She is one of a kind, well, she's the last of the American girls

She wears her overcoat for the coming of the nuclear winter
She is riding her bike like a fugitive of critical mass
She's on a hunger strike for the ones who won't make it for dinner
She makes enough to survive for a holiday of the working class

She's a runaway of the establishment incorporated
She won't cooperate, well, she's the last of the American girls

She plays her vinyl records singing songs on the eve of destruction
She's a sucker for all the criminals breaking the laws
She will come in first for the end of Western civilization
She's an endless war, she's a hero for the lost cause

Like a hurricane in the heart of the devastation
She's a natural disaster, she's the last of the American girls

She puts her makeup on like graffiti on the walls of the heartland
She's got her little book of conspiracies right in her hand
She will come in first for the end of Western civilization
She's a natural disaster, she's the last of the American girls
Aw yeah, all right, aw yeah

ProTabs promo.jpg

Onbeperkt en gratis toegang tot alle 25.000
Tabs & Chords en direct meespelen met

Artiest Liedje

...

Gitaarakkoorden green day - Last of the american girls

Dankzij de bladmuziek op deze pagina wordt het een stuk makkelijker om met de gitaar mee te spelen met Last of the american girls van green day De ProTabs van Gitaartabs worden door onze professionele gitaardocenten samengesteld. De tabs en chords zijn door leden zelf geplaatst. Deze undefined van green day met Last of the american girls is voor je geschreven door bram

Tabs & Chords van green day - Last of the american girls

Bij de ProTabs delen we niet alleen de tablatuur maar ook de speelwijze van Last of the american girls Met een beetje gitaar ervaring moet je dit gitaarliedje zeker kunnen spelen, maar als het niet lukt zijn we er altijd om je te helpen. Door een gratis account aan te maken krijg je niet alleen toegang tot deze tab ,akkoorden & tabs van Last of the american girls maar kun je ook onbeperkt meespelen met een van de meer dan 25.000 andere tabs & chords in onze database.

Plaats opmerking

Verstuur

Beoordeel deze song

Rate UsDon’t love itNot greatGoodGreatLove itRate Us

Bedankt voor je beoordeling!