When i come around

Gitaarliedjes, tabs & akkoorden (chords) When i come around - green day

Songtype: Tab

arrow&v

Markeer als favoriet

Favoriet

Gemarkeerd als favoriet

Capo:

0

green day

green day

Song
Album
Categorie

When i come around

Downloads
578
Niveau
2
Geplaatst door
gilerakevie
ProTabs-promo.jpg

Kevin Bruin

Greenday – When I Come Around

Intro: + Verse:
|------------|------------------------------------
|------------|------------------------------------
|------------|-----6--------8--4--4-4------------- 11x
|------4-----|-6-6-6-6-6--8-8--4--4-4-4-4---------
|--4-4-4-4-4-|-4-4-4-4-4--6-6--2--2-2-2-2---------
|--2-2-2-2-2-|-*-*---*-*--*-----------------------
* * * *
Bridge:
|--------------------------------------
|--------------------------------------
|------------------4-4-4-4-4-4-4-4-----
|--6-6-6-6-6-6-6-6-4-4-4-4-4-4-4-4-----
|--6-6-6-6-6-6-6-6-2-2-2-2-2-2-2-2-----
|--4-4-4-4-4-4-4-4---------------------

|--------------------------------------
|--------------------------------------
|------------------4-4-4-4-4-----------
|--6-6-6-6-6-6-6-6-4-4-4-4-4-----------
|--6-6-6-6-6-6-6-6-2-2-2-2-2--2p1------
|--4-4-4-4-4-4-4-4---------------------

Verse: 10x

Bridge:

Verse: 4x (na 2x komt solo en gaat verse door)

Solo:
|------------------------------------------------------
|------------------------------------------------------
|-11------13------11-----13--11-11--11-11-11-11-13-----
|---11--11--11--11--11---11--11-11--11-11-11-11-11-----
|------9-------9-------9--9---9--9---9--9--9--9--9-----
|------------------------------------------------------

|---------------------------------
|---------------------------------
|-11-11-11-11-13--8-8-8-8/9-10\---
|-11-11-11-11-11--8-8-8-8/9-10\---
|--9--9--9--9--9------------------
|---------------------------------

Bridge:

Verse: 4x

End

ProTabs promo.jpg

Onbeperkt en gratis toegang tot alle 25.000
Tabs & Chords en direct meespelen met

Artiest Liedje

...

Gitaarakkoorden green day - When i come around

Dankzij de bladmuziek op deze pagina wordt het een stuk makkelijker om met de gitaar mee te spelen met When i come around van green day De ProTabs van Gitaartabs worden door onze professionele gitaardocenten samengesteld. De tabs en chords zijn door leden zelf geplaatst. Deze undefined van green day met When i come around is voor je geschreven door gilerakevie

Tabs & Chords van green day - When i come around

Bij de ProTabs delen we niet alleen de tablatuur maar ook de speelwijze van When i come around Met een beetje gitaar ervaring moet je dit gitaarliedje zeker kunnen spelen, maar als het niet lukt zijn we er altijd om je te helpen. Door een gratis account aan te maken krijg je niet alleen toegang tot deze tab ,akkoorden & tabs van When i come around maar kun je ook onbeperkt meespelen met een van de meer dan 25.000 andere tabs & chords in onze database.

Plaats opmerking

Beoordeel deze song

Rate UsDon’t love itNot greatGoodGreatLove itRate Us

Bedankt voor je beoordeling!