What child is this

Gitaarliedjes, tabs & akkoorden (chords) What child is this - greensleeves

Songtype: Tab

arrow&v

Markeer als favoriet

Favoriet

Gemarkeerd als favoriet

Capo:

0

greensleeves

greensleeves

Song
Album
Categorie

What child is this

Downloads
2004
Niveau
2
Geplaatst door
esmee
ProTabs-promo.jpg


Als er iets niet klopt zegt het me even!!
Als je een beginner bent en je vindt het moeilijk zijn er 2 dingen die je kunt doen:

-capo op 3, dan klinkt het nog wel goed maar dan speel je het wat makkelijker
-alleen de bovenste frets spelen (dus niet de baslijn: in het eerste stukje krijg je dan
--------------0--1--0---
-------1--3-------------
--2---------------------
------------------------
------------------------



Am G Am E
|------|-----------0--1--0--|----------------------|------------------|---------------|
|------|--1--3--------------|--3---0-----------0---|--1---------------|--0------------|
|--2---|--------------------|-----------0---2------|------2--2--1--2--|-----1------2--|
|------|--------------------|----------------------|------------------|---------2-----|
|------|--0-------0---------|----------------------|--0------0--------|--2------------|
|------|--------------------|--3------3------------|------------------|---------0-----|

Am G Am E Am
|----------0--1--0--|------------------|------------------------|------------|
|--1--3-------------|--3--0--------0---|--1--0------------------|------------|
|-------------------|---------0--2-----|----------2---1------1--|--2--2--2---|
|-------------------|------------------|-------------------4----|------------|
|--0------0---------|------------------|--0-----0----2----------|--0------0--|
|-------------------|--3-----3---------|------------------------|------------|

C G Am E
|--3--3--1--0---|------------------|------------------|-------------|
|---------------|--2--0--------0---|--1---------------|--0----------|
|---------------|---------0--2-----|------2--2--1--2--|------1------|
|---------------|------------------|------------------|----------2--|
|--3--3---------|------------------|--0------0--------|--2----------|
|---------------|--3-----3---------|------------------|----------0--|

C G Am E Am
|--3--3--1--0--|-------------------|-----------------------|---------|
|--------------|--2---0----------0-|--1--0-----------------|---------|
|--------------|----------0---2----|---------2---1-----1---|--2---2--|
|--------------|-------------------|-----------------4-----|---------|
|--3--3--------|-------------------|--0-----0--------------|--0---0--|
|--------------|--3------3---------|--------------0--------|---------|

ProTabs promo.jpg

Onbeperkt en gratis toegang tot alle 25.000
Tabs & Chords en direct meespelen met

Artiest Liedje

...

Gitaarakkoorden greensleeves - What child is this

Dankzij de bladmuziek op deze pagina wordt het een stuk makkelijker om met de gitaar mee te spelen met What child is this van greensleeves De ProTabs van Gitaartabs worden door onze professionele gitaardocenten samengesteld. De tabs en chords zijn door leden zelf geplaatst. Deze undefined van greensleeves met What child is this is voor je geschreven door esmee

Tabs & Chords van greensleeves - What child is this

Bij de ProTabs delen we niet alleen de tablatuur maar ook de speelwijze van What child is this Met een beetje gitaar ervaring moet je dit gitaarliedje zeker kunnen spelen, maar als het niet lukt zijn we er altijd om je te helpen. Door een gratis account aan te maken krijg je niet alleen toegang tot deze tab ,akkoorden & tabs van What child is this maar kun je ook onbeperkt meespelen met een van de meer dan 25.000 andere tabs & chords in onze database.

Plaats opmerking

Beoordeel deze song

Rate UsDon’t love itNot greatGoodGreatLove itRate Us

Bedankt voor je beoordeling!