Terrible dead

Gitaarliedjes, tabs & akkoorden (chords) terrible dead - guitars on fire

Songtype: Tab

arrow&v

Markeer als favoriet

Favoriet

Gemarkeerd als favoriet

Capo:

0

guitars on fire

guitars on fire

Song
Album
Categorie

terrible dead

Downloads
118
Niveau
2
terrible dead

Geplaatst door
gitaartabs
ProTabs-promo.jpg


E------------2---------------2-------------2-3-2-----
B----0-2-3----------0-2-3---------0-2-3---------3-
G------------------------------------------------------
D------------------------------------------------------
A------------------------------------------------------
E------------------------------------------------------


E----------2--------------2---------------2-3-2------
B---0-2-3--------0-2-3----------0-2-3---------3-2-
G------------------------------------------------------
D------------------------------------------------------
A------------------------------------------------------
E------------------------------------------------------

E------------2---------------2-------------2-3-2-----
B----0-2-3----------0-2-3---------0-2-3---------3-
G------------------------------------------------------
D------------------------------------------------------
A------------------------------------------------------
E------------------------------------------------------


E----------2--------------2---------------2-3-2------
B---0-2-3--------0-2-3----------0-2-3---------3-2-
G------------------------------------------------------
D------------------------------------------------------
A------------------------------------------------------
E------------------------------------------------------

E------------2---------------2-------------2-3-2-----
B----0-2-3----------0-2-3---------0-2-3---------3-
G------------------------------------------------------
D------------------------------------------------------
A------------------------------------------------------
E------------------------------------------------------


E----------2--------------2---------------2-3-2------
B---0-2-3--------0-2-3----------0-2-3---------3-2-
G------------------------------------------------------
D------------------------------------------------------
A------------------------------------------------------
E------------------------------------------------------

Couplet 1:
The sun is up, the night is gone.
The people are dead, the dead is done
The street is standing in fire,in sun light
are the houses demolished


E------------2---------------2-------------2-3-2-----
B----0-2-3----------0-2-3---------0-2-3---------3-
G------------------------------------------------------
D------------------------------------------------------
A------------------------------------------------------
E------------------------------------------------------


E----------2--------------2---------------2-3-2------
B---0-2-3--------0-2-3----------0-2-3---------3-2-
G------------------------------------------------------
D------------------------------------------------------
A------------------------------------------------------
E------------------------------------------------------
reffrein
it is a terrible death,
a death that you do not want to experience,
make sure your flight,
otherwise you're dead like the rest


couplet 2
if you look in the eyes you die,
if you touch it you burn,
not to try it out,
otherwise you never know how it ends with your life


couplet 3
oooooohhh not try,
you'll forever oooooohhh die,
I warn you in advance for you die,
I hope you listened,
you know what else to expect


E------------2---------------2-------------2-3-2-----
B----0-2-3----------0-2-3---------0-2-3---------3-
G------------------------------------------------------
D------------------------------------------------------
A------------------------------------------------------
E------------------------------------------------------


E----------2--------------2---------------2-3-2------
B---0-2-3--------0-2-3----------0-2-3---------3-2-
G------------------------------------------------------
D------------------------------------------------------
A------------------------------------------------------
E------------------------------------------------------
reffrein
it is a terrible death,
a death that you do not want to experience,
make sure your flight,
otherwise you're dead like the rest


couplet 4
I do not want to lose,
because I love you very much,
please do not leave without you I can not live,
I've always loved you very much


Couplet 5
I never let you go,
beware of the monster,
otherwise you have a horrible death,
your life will end, but that should not happen


eind solo
So beware what you do .
because I like you not lose again

ProTabs promo.jpg

Onbeperkt en gratis toegang tot alle 25.000
Tabs & Chords en direct meespelen met

Artiest Liedje

...

Gitaarakkoorden guitars on fire - terrible dead

Dankzij de bladmuziek op deze pagina wordt het een stuk makkelijker om met de gitaar mee te spelen met terrible dead van guitars on fire De ProTabs van Gitaartabs worden door onze professionele gitaardocenten samengesteld. De tabs en chords zijn door leden zelf geplaatst. Deze undefined van guitars on fire met terrible dead is voor je geschreven door gitaartabs

Tabs & Chords van guitars on fire - terrible dead

Bij de ProTabs delen we niet alleen de tablatuur maar ook de speelwijze van terrible dead Met een beetje gitaar ervaring moet je dit gitaarliedje zeker kunnen spelen, maar als het niet lukt zijn we er altijd om je te helpen. Door een gratis account aan te maken krijg je niet alleen toegang tot deze tab ,akkoorden & tabs van terrible dead maar kun je ook onbeperkt meespelen met een van de meer dan 25.000 andere tabs & chords in onze database.

Plaats opmerking

Verstuur

Beoordeel deze song

Rate UsDon’t love itNot greatGoodGreatLove itRate Us

Bedankt voor je beoordeling!