What is love

Gitaarliedjes, tabs & akkoorden (chords) What is love - haddaway

Songtype: Tab

arrow&v

Markeer als favoriet

Favoriet

Gemarkeerd als favoriet

Capo:

0

haddaway

haddaway

Song
Album
Categorie

What is love

the album

Downloads
87
Niveau
1
Geplaatst door
rollinthunder
ProTabs-promo.jpg

Haddaway - What is love

intro
e-----------------------|----------------------|------------------------------|
B-----------------------|----------------------|------------------------------|
G--15-14-15-12-x2--|--15-14-15----x2--|--14-12-14------x4--------|
D-----------------------|-------------15------|--------------15-------------|
A-----------------------|----------------------|------------------------------|
E-----------------------|-----------------------|------------------------------|


refrein, just listening to the song
Am--C--Em--G

Am C Em G
e |-0-------------|-0-------------|-x-------------|-x-------------|
B |-1-------------|-1-------------|-x-------------|-x-------------|
G |-2-------------|-0-------------|-1-------------|-0-------------|
D |-2-------------|-2-------------|-2-------------|-0-------------|
A |-x-------------|-3-------------|-2-------------|-2-------------|
E |-x-------------|-x-------------|-0-------------|-3-------------|

ProTabs promo.jpg

Onbeperkt en gratis toegang tot alle 25.000
Tabs & Chords en direct meespelen met

Artiest Liedje

...

Gitaarakkoorden haddaway - What is love

Dankzij de bladmuziek op deze pagina wordt het een stuk makkelijker om met de gitaar mee te spelen met What is love van haddaway De ProTabs van Gitaartabs worden door onze professionele gitaardocenten samengesteld. De tabs en chords zijn door leden zelf geplaatst. Deze undefined van haddaway met What is love is voor je geschreven door rollinthunder

Tabs & Chords van haddaway - What is love

Bij de ProTabs delen we niet alleen de tablatuur maar ook de speelwijze van What is love Met een beetje gitaar ervaring moet je dit gitaarliedje zeker kunnen spelen, maar als het niet lukt zijn we er altijd om je te helpen. Door een gratis account aan te maken krijg je niet alleen toegang tot deze tab ,akkoorden & tabs van What is love maar kun je ook onbeperkt meespelen met een van de meer dan 25.000 andere tabs & chords in onze database.

Plaats opmerking

Beoordeel deze song

Rate UsDon’t love itNot greatGoodGreatLove itRate Us

Bedankt voor je beoordeling!