Harry potter theme song(easy)

Gitaarliedjes, tabs & akkoorden (chords) Harry potter theme song(easy) - harry potter

Songtype: Tab

arrow&v

Markeer als favoriet

Favoriet

Gemarkeerd als favoriet

Capo:

0

harry potter

harry potter

Song
Album
Categorie

Harry potter theme song(easy)

Downloads
3115
Niveau
1
Geplaatst door
masterchief
ProTabs-promo.jpg

e-----0---3--2--0--7--5----2--0--3--2--2--0
B--0-------------------------------------3-----
G----------------------------------------------
D-----------------------------------------------
A-----------------------------------------------
E-----------------------------------------------


e-----0---3--2--0--7--10--9--8--5--7--2--3------0
B--0----------------------------------------------3---
G------------------------------------------------------
D------------------------------------------------------
A-----------------------------------------------------
E------------------------------------------------------

Met capo komt eraan !!!!

ProTabs promo.jpg

Onbeperkt en gratis toegang tot alle 25.000
Tabs & Chords en direct meespelen met

Artiest Liedje

...

Gitaarakkoorden harry potter - Harry potter theme song(easy)

Dankzij de bladmuziek op deze pagina wordt het een stuk makkelijker om met de gitaar mee te spelen met Harry potter theme song(easy) van harry potter De ProTabs van Gitaartabs worden door onze professionele gitaardocenten samengesteld. De tabs en chords zijn door leden zelf geplaatst. Deze undefined van harry potter met Harry potter theme song(easy) is voor je geschreven door masterchief

Tabs & Chords van harry potter - Harry potter theme song(easy)

Bij de ProTabs delen we niet alleen de tablatuur maar ook de speelwijze van Harry potter theme song(easy) Met een beetje gitaar ervaring moet je dit gitaarliedje zeker kunnen spelen, maar als het niet lukt zijn we er altijd om je te helpen. Door een gratis account aan te maken krijg je niet alleen toegang tot deze tab ,akkoorden & tabs van Harry potter theme song(easy) maar kun je ook onbeperkt meespelen met een van de meer dan 25.000 andere tabs & chords in onze database.

Plaats opmerking

Beoordeel deze song

Rate UsDon’t love itNot greatGoodGreatLove itRate Us

Bedankt voor je beoordeling!