Hedwig's theme

Gitaarliedjes, tabs & akkoorden (chords) Hedwig's theme - harry potter

Songtype: Tab

arrow&v

Markeer als favoriet

Favoriet

Gemarkeerd als favoriet

Capo:

0

harry potter

harry potter

Song
Album
Categorie

Hedwig's theme

Downloads
1725
Niveau
1
Geplaatst door
albert schulte
ProTabs-promo.jpg

E-------0--3--2--0--7--5--2---------0--3--2--0--2----------
B----0--------------------------0-----------------0--------
G----------------------------------------------------------
D----------------------------------------------------------
A----------------------------------------------------------
E----------------------------------------------------------

E---0--3--2--0--7--10--8--7--3--7--3--2---0--2-------------
B-0----------------------------------------------0---------
G----------------------------------------------------------
D----------------------------------------------------------
A----------------------------------------------------------
E----------------------------------------------------------

ProTabs promo.jpg

Onbeperkt en gratis toegang tot alle 25.000
Tabs & Chords en direct meespelen met

Artiest Liedje

...

Gitaarakkoorden harry potter - Hedwig's theme

Dankzij de bladmuziek op deze pagina wordt het een stuk makkelijker om met de gitaar mee te spelen met Hedwig's theme van harry potter De ProTabs van Gitaartabs worden door onze professionele gitaardocenten samengesteld. De tabs en chords zijn door leden zelf geplaatst. Deze undefined van harry potter met Hedwig's theme is voor je geschreven door albert schulte

Tabs & Chords van harry potter - Hedwig's theme

Bij de ProTabs delen we niet alleen de tablatuur maar ook de speelwijze van Hedwig's theme Met een beetje gitaar ervaring moet je dit gitaarliedje zeker kunnen spelen, maar als het niet lukt zijn we er altijd om je te helpen. Door een gratis account aan te maken krijg je niet alleen toegang tot deze tab ,akkoorden & tabs van Hedwig's theme maar kun je ook onbeperkt meespelen met een van de meer dan 25.000 andere tabs & chords in onze database.

Plaats opmerking

Beoordeel deze song

Rate UsDon’t love itNot greatGoodGreatLove itRate Us

Bedankt voor je beoordeling!