Het wilhelmus

Gitaarliedjes, tabs & akkoorden (chords) Het wilhelmus - het wilhelmus

Songtype: Tab

arrow&v

Markeer als favoriet

Favoriet

Gemarkeerd als favoriet

Capo:

0

het wilhelmus

het wilhelmus

Song
Album
Categorie

Het wilhelmus

het wilhelmus

Downloads
3244
Niveau
1
Geplaatst door
gitaartabs
ProTabs-promo.jpg

|------------------------------------------------------------------------|
|------------------0---1----------0---------0---1---0------------------|
|------0--0--2---------------2--------2-----------------2---0---2---0-|
|---0--------------------------------------------------------------------|
|------------------------------------------------------------------------|
|------------------------------------------------------------------------|

Wilhelmus van nassauwe, ben ik van duitse bloed

|-------------------------------------------------------------------------|
|-------------------0---1--------0----------0---1---0-------------------|
|------0--0--2---------------2-------2-----------------2---0---2---0---|
|---0---------------------------------------------------------------------|
|-------------------------------------------------------------------------|
|-------------------------------------------------------------------------|

Den Vaderland getrouwe, ben ik tot in den dood
|------------0------------------------------------------------------------|
|---0--1--3-----3--1--0--------0--1--0--------------------------------|
|---------------------------2---2-----------2--0--2---------------------|
|-------------------------------------------------------------------------|
|-------------------------------------------------------------------------|
|--------------------------------------------------------------------------|

Een prinse van oranje ben ik vrij onverveerd

|----------------------------------------------------------------------|
|------------------0---------------------------------------------------|
|------0-----0--2-----2--0-------------0--0-----0--------------------|
|---0-----4-----------------4--0---0--4--------4---------------------|
|----------------------------------------------------------------------|
|----------------------------------------------------------------------|

De koning van Hispanje heb ik altijd geëerd

ProTabs promo.jpg

Onbeperkt en gratis toegang tot alle 25.000
Tabs & Chords en direct meespelen met

Artiest Liedje

...

Gitaarakkoorden het wilhelmus - Het wilhelmus

Dankzij de bladmuziek op deze pagina wordt het een stuk makkelijker om met de gitaar mee te spelen met Het wilhelmus van het wilhelmus De ProTabs van Gitaartabs worden door onze professionele gitaardocenten samengesteld. De tabs en chords zijn door leden zelf geplaatst. Deze undefined van het wilhelmus met Het wilhelmus is voor je geschreven door gitaartabs

Tabs & Chords van het wilhelmus - Het wilhelmus

Bij de ProTabs delen we niet alleen de tablatuur maar ook de speelwijze van Het wilhelmus Met een beetje gitaar ervaring moet je dit gitaarliedje zeker kunnen spelen, maar als het niet lukt zijn we er altijd om je te helpen. Door een gratis account aan te maken krijg je niet alleen toegang tot deze tab ,akkoorden & tabs van Het wilhelmus maar kun je ook onbeperkt meespelen met een van de meer dan 25.000 andere tabs & chords in onze database.

Plaats opmerking

Beoordeel deze song

Rate UsDon’t love itNot greatGoodGreatLove itRate Us

Bedankt voor je beoordeling!