Goede tijden slechte tijden

Gitaarliedjes, tabs & akkoorden (chords) Goede tijden slechte tijden - hollands glorie

Songtype: Tab

arrow&v

Markeer als favoriet

Favoriet

Gemarkeerd als favoriet

Capo:

0

hollands glorie

hollands glorie

Song
Album
Categorie

Goede tijden slechte tijden

hollands glorie

Downloads
1157
Niveau
1
Geplaatst door
gitaarheld
ProTabs-promo.jpg

Goede tijden Slechte tijden

verse 1 (De tijd van onbezorgdheid is voorbij...):
2x

e-------0-2-0---0-2-5----5-5-3-3-2-2-0-0--------|
B-----3-------3--------------------------3-0----|
G-2-2----------------------------------------2--|
D-----------------------------------------------|
A-----------------------------------------------|
E-----------------------------------------------|

Bij de overgang naar het refrein is het mooi als je je pink zachtjes laat rusten op de 12de fret en vervolgens tokkelt:

e-----------------------12---|
B----------12--------12------|
G-------12--------12---------|
D----12--------12------------|
A-12-------------------------|
E----------------------------|

Nog mooier is het als je de laatste tokkel even laat klinken.


Refrein (goede tijden slechte tijden):

e---2-0-----3-2-0---2-3-5---5-7-3--2-3-5---0-2-3-0---0-2---0-2---|
B-------3-----------------3--------------3---------3-----3-------|
G-2-------3----------------------------------------------------2-|
D----------------------------------------------------------------|
A----------------------------------------------------------------|
E----------------------------------------------------------------|

e---2-0-----3-2-0---2-3-5---5-7-3--2-3-5---0-2-3-0---0-2---0--------|
B-------3-----------------3--------------3---------3-----3------3-3-|
G-2-------3---------------------------------------------------------|
D-------------------------------------------------------------------|
A-------------------------------------------------------------------|
E-------------------------------------------------------------------|

Verse 2 (Het ideaal komt langzaam dichterbij):
2x
e-------0-2-0---0-2-5----5-5-3-3-2-2-0-0--------|
B-----3-------3--------------------------3-0----|
G-2-2----------------------------------------2--|
D-----------------------------------------------|
A-----------------------------------------------|
E-----------------------------------------------|

Refrein (goede tijden slechte tijden):

e---2-0-----3-2-0---2-3-5---5-7-3--2-3-5---0-2-3-0---0-2---0-2---|
B-------3-----------------3--------------3---------3-----3-------|
G-2-------3----------------------------------------------------2-|
D----------------------------------------------------------------|
A----------------------------------------------------------------|
E----------------------------------------------------------------|

e---2-0-----3-2-0---2-3-5---5-7-3--2-3-5---0-2-3-0---0-2---0--------|
B-------3-----------------3--------------3---------3-----3------3-3-|
G-2-------3---------------------------------------------------------|
D-------------------------------------------------------------------|
A-------------------------------------------------------------------|
E-------------------------------------------------------------------|

ProTabs promo.jpg

Onbeperkt en gratis toegang tot alle 25.000
Tabs & Chords en direct meespelen met

Artiest Liedje

...

Gitaarakkoorden hollands glorie - Goede tijden slechte tijden

Dankzij de bladmuziek op deze pagina wordt het een stuk makkelijker om met de gitaar mee te spelen met Goede tijden slechte tijden van hollands glorie De ProTabs van Gitaartabs worden door onze professionele gitaardocenten samengesteld. De tabs en chords zijn door leden zelf geplaatst. Deze undefined van hollands glorie met Goede tijden slechte tijden is voor je geschreven door gitaarheld

Tabs & Chords van hollands glorie - Goede tijden slechte tijden

Bij de ProTabs delen we niet alleen de tablatuur maar ook de speelwijze van Goede tijden slechte tijden Met een beetje gitaar ervaring moet je dit gitaarliedje zeker kunnen spelen, maar als het niet lukt zijn we er altijd om je te helpen. Door een gratis account aan te maken krijg je niet alleen toegang tot deze tab ,akkoorden & tabs van Goede tijden slechte tijden maar kun je ook onbeperkt meespelen met een van de meer dan 25.000 andere tabs & chords in onze database.

Plaats opmerking

Beoordeel deze song

Rate UsDon’t love itNot greatGoodGreatLove itRate Us

Bedankt voor je beoordeling!