Rockloopje

Gitaarliedjes, tabs & akkoorden (chords) Rockloopje - iedereen

Songtype: Tab

arrow&v

Markeer als favoriet

Favoriet

Gemarkeerd als favoriet

Capo:

0

iedereen

iedereen

Song
Album
Categorie

Rockloopje

geen idee

Downloads
1033
Niveau
2
Geplaatst door
gitaartabs
ProTabs-promo.jpg

Tablatuur written

Tabed by:___petra______________________
Datum :____12-01-2009_____________________
Title :_______rock loopje__________________
Auteur :_________________________
Album :_________________________


E -----------------------------------------------------------------------------------
B -----------------------------------------------------------------------------------
G -----------------------------------------------------------------------------------
D --------------------2-----------------------------------2--------------------------
A ------------2--4----------4--2-------------------2--4-------4--2-------------------
E ----0--4-------------------------4---------0--4-------------------4----------------

E -----------------------------------------------------------------------------------
B -----------------------------------------------------------------------------------
G ----------------2-------------------------------------------------------------------
D ---------2--4-------4---2---------------------------2------------------------------
A ---0--4--------------------4------------------2--4-----4--2------2-2-2-2-0-0-0-0---
E ----------------------------------------0---4----------------4--------------------0

ProTabs promo.jpg

Onbeperkt en gratis toegang tot alle 25.000
Tabs & Chords en direct meespelen met

Artiest Liedje

...

Gitaarakkoorden iedereen - Rockloopje

Dankzij de bladmuziek op deze pagina wordt het een stuk makkelijker om met de gitaar mee te spelen met Rockloopje van iedereen De ProTabs van Gitaartabs worden door onze professionele gitaardocenten samengesteld. De tabs en chords zijn door leden zelf geplaatst. Deze undefined van iedereen met Rockloopje is voor je geschreven door gitaartabs

Tabs & Chords van iedereen - Rockloopje

Bij de ProTabs delen we niet alleen de tablatuur maar ook de speelwijze van Rockloopje Met een beetje gitaar ervaring moet je dit gitaarliedje zeker kunnen spelen, maar als het niet lukt zijn we er altijd om je te helpen. Door een gratis account aan te maken krijg je niet alleen toegang tot deze tab ,akkoorden & tabs van Rockloopje maar kun je ook onbeperkt meespelen met een van de meer dan 25.000 andere tabs & chords in onze database.

Plaats opmerking

Beoordeel deze song

Rate UsDon’t love itNot greatGoodGreatLove itRate Us

Bedankt voor je beoordeling!