Obstacle 1 (rhythm)

Gitaarliedjes, tabs & akkoorden (chords) Obstacle 1 (rhythm) - interpol

Songtype: Tab

arrow&v

Markeer als favoriet

Favoriet

Gemarkeerd als favoriet

Capo:

0

interpol

interpol

Song
Album
Categorie

Obstacle 1 (rhythm)

turn on the bright lights

Downloads
929
Niveau
0
Geplaatst door
kaham
ProTabs-promo.jpg

Nummer: Obstacle 1
Artiest: Interpol
Album: Turn on the Bright Lights
Tab: BasG [Kaham]
Tuning: Standard EADGBe

RHYTHMGITAAR!
Deze tab geeft de rhythmgitaar (voor zover je een lead en een rhythm kan onderscheiden in dit nummer) weer.
Voor de andere gitaarpartij verwijs ik je graag door naar mijn andere tab van dit nummer.




E E E E E E E E E E E E E E E E
E||-------------------------------|-----------------------------|
B||-------------------------------|-----------------------------|
G||-------------------------------|-----------------------------|
D||--10--10--10--10--10--7--7--7--|--7--7--7--7--7--10--10--10--|
A||---8---8---8---8---8--8--8--8--|--0--0--0--0--0---0---0---0--|
E||-------------------------------|-----------------------------|


E E E E E E E E E E E E E E E E
-------------------------------|-----------------------------|
-------------------------------|-----------------------------|
-------------------------------|-----------------------------|
--10--10--10--10--10--7--7--7--|--7--7--7--7--7--10--10--10--|
---8---8---8---8---8--8--8--8--|--0--0--0--0--0---0---0---0--|
-------------------------------|-----------------------------|


E E E E E E E E E E E E E E E E
----------------------------------|----------------------------------|
----------------------------------|----------------------------------|
----------------------------------|----------------------------------|
--10--10--10--10--10--10--10--10--|--10--10--10--10--10--10--10--10--|
---8---8---8---8---8---8---8---8--|---0---0---0---0---0---0---0---0--|
----------------------------------|----------------------------------|


E E E E E E E E E E E E E E E E
--------------------------|----------------------------------|
--------------------------|----------------------------------|
--------------------------|----------------------------------|
--9--9--9--9--9--9--9--9--|--10--10--10--10--10--10--10--10--|
--8--8--8--8--8--8--8--8--|---0---0---0---0---0---0---0---0--|
--------------------------|----------------------------------|


E E E E E E E E E E E E E E E E
--------------------------|-----------------------------|
--------------------------|-----------------------------|
--------------------------|-----------------------------|
--7--7--7--7--7--7--7--7--|--7--7--7--7--7--10--10--10--|
--8--8--8--8--8--8--8--8--|--0--0--0--0--0---0---0---0--|
--------------------------|-----------------------------|


E E E E E E E E E E E E E E E E
--------------------------|-----------------------------|
--------------------------|-----------------------------|
--------------------------|-----------------------------|
--7--7--7--7--7--7--7--7--|--7--7--7--7--7--10--10--10--|
--8--8--8--8--8--8--8--8--|--0--0--0--0--0---0---0---0--|
--------------------------|-----------------------------|


E E E E E E E E E E E E E E E E
----------------------------------|----------------------------------|
----------------------------------|----------------------------------|
----------------------------------|----------------------------------|
--10--10--10--10--10--10--10--10--|--10--10--10--10--10--10--10--10--|
---8---8---8---8---8---8---8---8--|---0---0---0---0---0---0---0---0--|
----------------------------------|----------------------------------|


E E E E E E E E E E E E E E E E
----------------------------------|----------------------------------|
----------------------------------|----------------------------------|
----------------------------------|----------------------------------|
--10--10--10--10--10--10--10--10--|--10--10--10--10--10--10--10--10--|
---8---8---8---8---8---8---8---8--|---0---0---0---0---0---0---0---0--|
----------------------------------|----------------------------------|


E E E E E E E E E E E E E E E E
--------------------------|--------------------------|
--------------------------|--------------------------|
--------------------------|--------------------------|
--7--7--7--7--7--7--7--7--|--7--7--7--7--7--7--7--7--|
--8--8--8--8--8--8--8--8--|--0--0--0--0--0--0--0--0--|
--------------------------|--------------------------|


E E E E E E E E E E E E E E E E
--------------------------|-----------------------------|
--------------------------|-----------------------------|
--------------------------|-----------------------------|
--7--7--7--7--7--7--7--7--|--7--7--7--7--7--10--10--10--|
--8--8--8--8--8--8--8--8--|--0--0--0--0--0---0---0---0--|
--------------------------|-----------------------------|


E E E E E E E E E E E E E E E E
----------------------------------|----------------------------------|
----------------------------------|----------------------------------|
----------------------------------|----------------------------------|
--10--10--10--10--10--10--10--10--|--10--10--10--10--10--10--10--10--|
---8---8---8---8---8---8---8---8--|---0---0---0---0---0---0---0---0--|
----------------------------------|----------------------------------|


E E E E E E E E E E E E E E E E
----------------------------------|----------------------------------|
----------------------------------|----------------------------------|
----------------------------------|----------------------------------|
--10--10--10--10--10--10--10--10--|--10--10--10--10--10--10--10--10--|
---8---8---8---8---8---8---8---8--|---0---0---0---0---0---0---0---0--|
----------------------------------|----------------------------------|


E E E E E E E E E E E E E E E E
--------------------------|-----------------------------|
--------------------------|-----------------------------|
--------------------------|-----------------------------|
--7--7--7--7--7--7--7--7--|--7--7--7--7--7--10--10--10--|
--8--8--8--8--8--8--8--8--|--0--0--0--0--0---0---0---0--|
--------------------------|-----------------------------|


E E E E E E E E E E E E E E E E W
--------------------------|-----------------------------|-------------------|
--------------------------|-----------------------------|-------------------|
--------------------------|-----------------------------|-------------------|
--7--7--7--7--7--7--7--7--|--7--7--7--7--7--10--10--10--|-------------------|
--8--8--8--8--8--8--8--8--|--0--0--0--0--0---0---0---0--|-------------------|
--------------------------|-----------------------------|-------------------|


W E E Q E E Q
-------------------|---8---8--------8---8-------|
-------------------|--10--10-------10--10-------|
-------------------|----------------------------|
-------------------|----------------------------|
-------------------|----------------------------|
-------------------|----------------------------|


E E Q E E E E E E E E E E E E
---8---8--------8---8---8---8--|---------8---8---------8---8--|
--10--10-------10--10--10--10--|--------10--10--------10--10--|
-------------------------------|------------------------------|
-------------------------------|------------------------------|
-------------------------------|------------------------------|
-------------------------------|------------------------------|


E E E E E E E E E E E E E E E E
---------8---8--------------|----------------------------------|
--------10--10--------------|----------------------------------|
----------------------------|---9---9---9---9---9---9---9---9--|
----------------------------|--10--10--10--10--10--10--10--10--|
----------------------------|---8---8---8---8---8---8---8---8--|
----------------------------|----------------------------------|


E E E E E E E E E E E E E E E E
----------------------------------|--------------------------|
----------------------------------|--------------------------|
---9---9---9---9---9---9---9---9--|--9--9--9--9--9--9--9--9--|
--10--10--10--10--10--10--10--10--|--7--7--7--7--7--7--7--7--|
---8---8---8---8---7---7---7---7--|--0--0--0--0--0--0--0--0--|
----------------------------------|--------------------------|


E E E E E E E E E E E E E E E E
----------------------------------|------------------------------|
----------------------------------|------------------------------|
---9---9---9---9---9---9---9---9--|---9---9---------9---9--------|
--10--10--10--10--10--10--10--10--|--10--10--------10--10--------|
--10--10--10--10--10--10--10--10--|---8---8---------8---8--------|
---8---8---8---8---8---8---8---8--|------------------------------|


E E E E E E E E E E E E E E E E
------------------------------|--------------------------|
------------------------------|--------------------------|
---9---9---------9---9--------|--9--9--9--9--9--9--9--9--|
--10--10--------10--10--------|--7--7--7--7--7--7--7--7--|
---8---8---------7---7--------|--0--0--0--0--0--0--0--0--|
------------------------------|--------------------------|


E E E E E E E E E E E E E E E E
----------------------------------|-------------------------------|
----------------------------------|-------------------------------|
---9---9---9---9---9---9---9---9--|-------------------------------|
--10--10--10--10--10--10--10--10--|--10--10--10--10--10--7--7--7--|
--10--10--10--10--10--10--10--10--|---8---8---8---8---8--8--8--8--|
---8---8---8---8---8---8---8---8--|-------------------------------|


E E E E E E E E E E E E E E E E
-----------------------------|-------------------------------|
-----------------------------|-------------------------------|
-----------------------------|-------------------------------|
--7--7--7--7--7--10--10--10--|--10--10--10--10--10--7--7--7--|
--0--0--0--0--0---0---0---0--|---8---8---8---8---8--8--8--8--|
-----------------------------|-------------------------------|


E E E E E E E E E E E E E E E E
-----------------------------|----------------------------------|
-----------------------------|----------------------------------|
-----------------------------|----------------------------------|
--7--7--7--7--7--10--10--10--|--10--10--10--10--10--10--10--10--|
--0--0--0--0--0---0---0---0--|---8---8---8---8---8---8---8---8--|
-----------------------------|----------------------------------|


E E E E E E E E E E E E E E E E
----------------------------------|----------------------------------|
----------------------------------|----------------------------------|
----------------------------------|----------------------------------|
--10--10--10--10--10--10--10--10--|--10--10--10--10--10--10--10--10--|
---0---0---0---0---0---0---0---0--|---8---8---8---8---8---8---8---8--|
----------------------------------|----------------------------------|


E E E E E E E E E E E E E E E E
----------------------------------|--------------------------|
----------------------------------|--------------------------|
----------------------------------|--------------------------|
--10--10--10--10--10--10--10--10--|--7--7--7--7--7--7--7--7--|
---0---0---0---0---0---0---0---0--|--8--8--8--8--8--8--8--8--|
----------------------------------|--------------------------|


E E E E E E E E E E E E E E E E
-----------------------------|--------------------------|
-----------------------------|--------------------------|
-----------------------------|--------------------------|
--7--7--7--7--7--10--10--10--|--7--7--7--7--7--7--7--7--|
--0--0--0--0--0---0---0---0--|--8--8--8--8--8--8--8--8--|
-----------------------------|--------------------------|


E E E E E E E E E E E E E E E E
-----------------------------|----------------------------------|
-----------------------------|----------------------------------|
-----------------------------|----------------------------------|
--7--7--7--7--7--10--10--10--|--10--10--10--10--10--10--10--10--|
--0--0--0--0--0---0---0---0--|---8---8---8---8---8---8---8---8--|
-----------------------------|----------------------------------|


E E E E E E E E E E E E E E E E
----------------------------------|----------------------------------|
----------------------------------|----------------------------------|
----------------------------------|----------------------------------|
--10--10--10--10--10--10--10--10--|--10--10--10--10--10--10--10--10--|
---0---0---0---0---0---0---0---0--|---8---8---8---8---8---8---8---8--|
----------------------------------|----------------------------------|


E E E E E E E E E E Q Q Q W
----------------------------------|-----------------------|-------------------|
----------------------------------|-----------------------|-------------------|
----------------------------------|-----------------------|-------------------|
--10--10--10--10--10--10--10--10--|--7--7-----------------|-------------------|
---0---0---0---0---0---0---0---0--|--0--0-----------------|-------------------|
----------------------------------|-----------------------|-------------------|


E E Q E E Q E E Q E E E E
---8---8--------8---8-------|---8---8--------8---8---8---8--|
--10--10-------10--10-------|--10--10-------10--10--10--10--|
----------------------------|-------------------------------|
----------------------------|-------------------------------|
----------------------------|-------------------------------|
----------------------------|-------------------------------|


E E E E E E E E E E E E E E E E
---------8---8---------8---8--|---------8---8--------------|
--------10--10--------10--10--|--------10--10--------------|
------------------------------|----------------------------|
------------------------------|----------------------------|
------------------------------|----------------------------|
------------------------------|----------------------------|


E E E E E E E E E E E E E E E E
|-----------------------------------|----------------------------------|
|-----------------------------------|----------------------------------|
|*---9---9---9---9---9---9---9---9--|---9---9---9---9---9---9---9---9--|
|*--10--10--10--10--10--10--10--10--|--10--10--10--10--10--10--10--10--|
|----8---8---8---8---8---8---8---8--|---8---8---8---8---7---7---7---7--|
|-----------------------------------|----------------------------------|


E E E E E E E E E E E E E E E E
--------------------------|----------------------------------|
--------------------------|----------------------------------|
--9--9--9--9--9--9--9--9--|---9---9---9---9---9---9---9---9--|
--7--7--7--7--7--7--7--7--|--10--10--10--10--10--10--10--10--|
--0--0--0--0--0--0--0--0--|--10--10--10--10--10--10--10--10--|
--------------------------|---8---8---8---8---8---8---8---8--|


E E E E E E E E E E E E E E E E
------------------------------|------------------------------|
------------------------------|------------------------------|
---9---9---------9---9--------|---9---9---------9---9--------|
--10--10--------10--10--------|--10--10--------10--10--------|
---8---8---------8---8--------|---8---8---------7---7--------|
------------------------------|------------------------------|


E E E E E E E E E E E E E E E E
--------------------------|-----------------------------------||
--------------------------|-----------------------------------||
--9--9--9--9--9--9--9--9--|---9---9---9---9---9---9---9---9--*||
--7--7--7--7--7--7--7--7--|--10--10--10--10--10--10--10--10--*||
--0--0--0--0--0--0--0--0--|--10--10--10--10--10--10--10--10---||
--------------------------|---8---8---8---8---8---8---8---8---||


E E E E E E E E W W
----------------------------------|-------------------|-------------------|
----------------------------------|-------------------|-------------------|
---9---9---9---9---9---9---9---9--|-------------------|-------------------|
--10--10--10--10--10--10--10--10--|-------------------|-------------------|
--10--10--10--10--10--10--10--10--|-------------------|-------------------|
---8---8---8---8---8---8---8---8--|-------------------|-------------------|


W W W W
-------------------|-------------------|-------------------|-------------------|
-------------------|-------------------|-------------------|-------------------|
-------------------|-------------------|-------------------|-------------------|
-------------------|-------------------|-------------------|-------------------|
-------------------|-------------------|-------------------|-------------------|
-------------------|-------------------|-------------------|-------------------|


W W W W
-------------------|-------------------|-------------------|-------------------|
-------------------|-------------------|-------------------|-------------------|
-------------------|-------------------|-------------------|-------------------|
-------------------|-------------------|-------------------|-------------------|
-------------------|-------------------|-------------------|-------------------|
-------------------|-------------------|-------------------|-------------------|


W W W W
-------------------|-------------------|-------------------|-------------------|
-------------------|-------------------|-------------------|-------------------|
-------------------|-------------------|-------------------|-------------------|
-------------------|-------------------|-------------------|-------------------|
-------------------|-------------------|-------------------|-------------------|
-------------------|-------------------|-------------------|-------------------|


W W W W
-------------------|-------------------|-------------------|-------------------|
-------------------|-------------------|-------------------|-------------------|
-------------------|-------------------|-------------------|-------------------|
-------------------|-------------------|-------------------|-------------------|
-------------------|-------------------|-------------------|-------------------|
-------------------|-------------------|-------------------|-------------------|


> > > > > > > >
W W E E E E E E E E
-------------------|-------------------|----------------------------|
-------------------|-------------------|----------------------------|
-------------------|-------------------|----------------------------|
-------------------|-------------------|--5--5--5--7--7--7--10--10--|
-------------------|-------------------|----------------------------|
-------------------|-------------------|----------------------------|


> > > > > > > > > > > > > > > >
E E E E E E E E E E E E E E E E
----------------------------------|----------------------------|
----------------------------------|----------------------------|
----------------------------------|----------------------------|
--12--12--12--12--12--12--12--12--|--5--5--5--7--7--7--10--10--|
----------------------------------|----------------------------|
----------------------------------|----------------------------|


> > > > > > > > > > > > > > > >
E E E E E E E E E E E E E E E E
----------------------------------|----------------------------|
----------------------------------|----------------------------|
----------------------------------|----------------------------|
--12--12--12--12--12--12--12--12--|--5--5--5--7--7--7--10--10--|
----------------------------------|----------------------------|
----------------------------------|----------------------------|


> > > > > > > > > > > > > > > >
E E E E E E E E E E E E E E E E
----------------------------------|----------------------------|
----------------------------------|----------------------------|
----------------------------------|----------------------------|
--12--12--12--12--12--12--12--12--|--5--5--5--7--7--7--10--10--|
----------------------------------|----------------------------|
----------------------------------|----------------------------|


> > > > > > > > > > > > > > > >
E E E E E E E E E E E E E E E E
----------------------------------|----------------------------|
----------------------------------|----------------------------|
----------------------------------|----------------------------|
--12--12--12--12--12--12--12--12--|--5--5--5--7--7--7--10--10--|
----------------------------------|----------------------------|
----------------------------------|----------------------------|


> > > > > > > > > > > > > > > >
E E E E E E E E E E E E E E E E
----------------------------------|----------------------------|
----------------------------------|----------------------------|
----------------------------------|----------------------------|
--12--12--12--12--12--12--12--12--|--5--5--5--7--7--7--10--10--|
----------------------------------|----------------------------|
----------------------------------|----------------------------|


> > > > > > > > > > > > > > > >
E E E E E E E E E E E E E E E E
----------------------------------|----------------------------|
----------------------------------|----------------------------|
----------------------------------|----------------------------|
--12--12--12--12--12--12--12--12--|--5--5--5--7--7--7--10--10--|
----------------------------------|----------------------------|
----------------------------------|----------------------------|


> > > > > > > > > > > > > > > >
E E E E E E E E E E E E E E E E
----------------------------------|----------------------------|
----------------------------------|----------------------------|
----------------------------------|----------------------------|
--12--12--12--12--12--12--12--12--|--5--5--5--7--7--7--10--10--|
----------------------------------|----------------------------|
----------------------------------|----------------------------|


> > > > > > > > > > > > > > > >
E E E E E E E E E E E E E E E E
----------------------------------|----------------------------|
----------------------------------|----------------------------|
----------------------------------|----------------------------|
--12--12--12--12--12--12--12--12--|--5--5--5--7--7--7--10--10--|
----------------------------------|----------------------------|
----------------------------------|----------------------------|


> > > > > > > > > > > > > > > >
E E E E E E E E E E E E E E E E
----------------------------------|----------------------------|
----------------------------------|----------------------------|
----------------------------------|----------------------------|
--12--12--12--12--12--12--12--12--|--5--5--5--7--7--7--10--10--|
----------------------------------|----------------------------|
----------------------------------|----------------------------|


> > > > > > > > > > > > > > > >
E E E E E E E E E E E E E E E E
----------------------------------|----------------------------|
----------------------------------|----------------------------|
----------------------------------|----------------------------|
--12--12--12--12--12--12--12--12--|--5--5--5--7--7--7--10--10--|
----------------------------------|----------------------------|
----------------------------------|----------------------------|


> > > > > > > > > > > > > > > >
E E E E E E E E E E E E E E E E
----------------------------------|----------------------------|
----------------------------------|----------------------------|
----------------------------------|----------------------------|
--12--12--12--12--12--12--12--12--|--5--5--5--7--7--7--10--10--|
----------------------------------|----------------------------|
----------------------------------|----------------------------|


> > > > > > > >
E E E E E E E E Q Q Q Q
----------------------------------|----------------------||
----------------------------------|----------------------||
----------------------------------|----------------------||
--12--12--12--12--12--12--12--12--|--L-------------------||
----------------------------------|----------------------||
----------------------------------|----------------------||




Duration Legend
---------------
W - whole
H - half
Q - quarter
E - 8th
S - 16th
T - 32nd
X - 64th
. - note dotted
|-n-| - n-tuplets


Tablature Legend
----------------
L - tied note
x - dead note
g - grace note
(n) - ghost note
> - accentuded note
NH - natural harmonic
AH - artificial harmonic
TH - tapped harmonic
SH - semi harmonic
PH - pitch harmonic
h - hammer on
p - pull off
b - bend
br - bendRelease
pb - preBend
pbr - preBendRelease
brb - bendReleaseBend
\n/ - tremolo bar dip
\n - tremolo bar dive
-/n - tremolo bar Release up
/n\ - tremolo bar inverted dip
/n - tremolo bar return
-\n - tremolo bar Release down
S - shift slide
s - legato slide
/ - slide into from below or out of upwards
\ - slide into from above or out of downwards
~ - vibrato
W - wide vibrato
tr - trill
TP - tremolo picking
T - tapping
S - slap
P - pop
< - fade in
^ - brush up
v - brush down

ProTabs promo.jpg

Onbeperkt en gratis toegang tot alle 25.000
Tabs & Chords en direct meespelen met

Artiest Liedje

...

Gitaarakkoorden interpol - Obstacle 1 (rhythm)

Dankzij de bladmuziek op deze pagina wordt het een stuk makkelijker om met de gitaar mee te spelen met Obstacle 1 (rhythm) van interpol De ProTabs van Gitaartabs worden door onze professionele gitaardocenten samengesteld. De tabs en chords zijn door leden zelf geplaatst. Deze undefined van interpol met Obstacle 1 (rhythm) is voor je geschreven door kaham

Tabs & Chords van interpol - Obstacle 1 (rhythm)

Bij de ProTabs delen we niet alleen de tablatuur maar ook de speelwijze van Obstacle 1 (rhythm) Met een beetje gitaar ervaring moet je dit gitaarliedje zeker kunnen spelen, maar als het niet lukt zijn we er altijd om je te helpen. Door een gratis account aan te maken krijg je niet alleen toegang tot deze tab ,akkoorden & tabs van Obstacle 1 (rhythm) maar kun je ook onbeperkt meespelen met een van de meer dan 25.000 andere tabs & chords in onze database.

Plaats opmerking

Beoordeel deze song

Rate UsDon’t love itNot greatGoodGreatLove itRate Us

Bedankt voor je beoordeling!