Meer van jou

Gitaarliedjes, tabs & akkoorden (chords) Meer van jou - ios

Songtype: Tab

arrow&v

Markeer als favoriet

Favoriet

Gemarkeerd als favoriet

Capo:

0

ios

ios

Song
Album
Categorie

Meer van jou

Downloads
1733
Niveau
2

Geplaatst door
ilse136
ProTabs-promo.jpg

Meer van jou - ios

E x76454
Emaj7 x76444
C#madd9 x46644
A 577655
G#m7 464444
F# 244322
B x24442
Bsus4 x24452
B/D# x6444x
Asus4 x02230


intro
E Emaj7
e |------------------------------|-------------------------------|
B |----5-----5---------5-----5---|-----4-----4--------4-----4----|
G |--4---4-----4-----4---4-----4-|---4---4-----4----4---4-----4--|
D |------------------------------|-------------------------------|
A |-7------7-------7-------7-----|-7-------7------7-------7------|
E |------------------------------|-------------------------------|

C#madd9 A
e |------------------------------|-------------------------------|
B |----4-----4---------4-----4---|-----5-----5--------5-----5----|
G |--4---4-----4-----4---4-----4-|---6---6-----6----6---6-----6--|
D |------------------------------|-------------------------------|
A |-4------4-------4-------4-----|-------------------------------|
E |------------------------------|-5-------5------5--------5-----|




E Emaj7 C#madd9
Zomaar ergens onderweg op een doordeweekse dag
A E
weet ik ineens heel zeker dat ik niets meer vragen mag
Emaj7 C#madd9
want ik heb zoveel gekregen en ik heb geluk gehad
A
en meer dan genoeg van alles
G#m7 A G#m7 A
wat ik hebben wou en wat ik moest en zou,
F#
het gaat me niet verkeerd en toch wil ik altijd



G#m A
Meer van jou
E B Bsus4 B
van je kleinste overwinning tot je grootste ongelijk
G#m E A E
meer van jou het is nooit genoeg voor mij



Ik hoef niet naar verre landen op vakantie, bovendien:
ik heb de wereld in mijn handen als ik jou maar zie
ik kan uren naar je kijken al zou ik eigenlijk moeten gaan
ik doe alles om te blijven en ik doe het één voor je liefde
twee voor de nachten, drie voor hoe je lacht
daarom wil ik altijd

Meer van jou
van je kleinste overwinning tot je grootste ongelijk
meer van jou het is nooit genoeg voor mij




C#m B A
Zelfs wanneer je bij me weg zou gaan
C#m B/D# A/E
zelfs wanneer je mij niet meer ziet staan
C#m B A
zelfs wanneer je niet meer van me houdt
Asu4
wil ik toch nog meer van jou



A
Dus laat nu de nacht maar komen
E B F#
ik laat het niet bij dromen van jou, van jou

(repeat)

eind : C#m – B – A


ProTabs promo.jpg

Onbeperkt en gratis toegang tot alle 25.000
Tabs & Chords en direct meespelen met

Artiest Liedje

...

Gitaarakkoorden ios - Meer van jou

Dankzij de bladmuziek op deze pagina wordt het een stuk makkelijker om met de gitaar mee te spelen met Meer van jou van ios De ProTabs van Gitaartabs worden door onze professionele gitaardocenten samengesteld. De tabs en chords zijn door leden zelf geplaatst. Deze undefined van ios met Meer van jou is voor je geschreven door ilse136

Tabs & Chords van ios - Meer van jou

Bij de ProTabs delen we niet alleen de tablatuur maar ook de speelwijze van Meer van jou Met een beetje gitaar ervaring moet je dit gitaarliedje zeker kunnen spelen, maar als het niet lukt zijn we er altijd om je te helpen. Door een gratis account aan te maken krijg je niet alleen toegang tot deze tab ,akkoorden & tabs van Meer van jou maar kun je ook onbeperkt meespelen met een van de meer dan 25.000 andere tabs & chords in onze database.

Plaats opmerking

Verstuur

Beoordeel deze song

Rate UsDon’t love itNot greatGoodGreatLove itRate Us

Bedankt voor je beoordeling!