You're beautiful

Gitaarliedjes, tabs & akkoorden (chords) You're beautiful - james blunt

Songtype: Tab

arrow&v

Markeer als favoriet

Favoriet

Gemarkeerd als favoriet

Capo:

3

james blunt

james blunt

Song
Album
Categorie

You're beautiful

Downloads
2416
Niveau
2
back to bedlam

Geplaatst door
mys11
ProTabs-promo.jpg

*****************************************************************
DE BOVENSTE VERSIE IS MET CAPO OP 8, DE ONDERSTE IS MET CAPO OP 3
*****************************************************************



Guitar 1 (strum): capo 8
(Akkoorden relatief aan capo)

G [ 3 2 0 0 3 3 ]
G/F# [ 2 - 0 0 3 3 ]
Em7 [ 0 2 2 0 3 3 ]
Cadd9 [ - 3 2 0 3 3 ]
D/F# [ 2 0 0 2 3 2 ]
D [ x x 0 2 3 2 ]
A7sus4 [ - 0 2 2 3 3 ]

Guitar 2 (riff1): Geen capo

e |------------------|------------------|------------------|------------------|
B |------------------|------------------|------------------|------------------|
G |------------------|------------------|------------------|------------------|
D |-5-5-3-5---3-5----|------------------|-5-5-3-5---3-5----|-6-6-5-6---5-6----|
A |------------------|-5-5-3-5---3-5----|------------------|------------------|
E |------------------|------------------|------------------|------------------|

Guitar 3 (riff2): Geen capo

e |------------------|------------------|------------------|------------------|
B |------------------|---------6~-------|------------------|------------------|
G |---8-7-8~---------|---8-7-8----------|-8~--7-8~---------|------------------|
D |-5----------------|-5----------------|------------------|-5--6-------------|
A |------------------|------------------|------------------|------------------|
E |------------------|------------------|------------------|------------------|

Kan eventueel ook zo:

e |------------------|---------1~-------|------------------|------------------|
B |---4-3-4~---------|---4-3-4----------|-4---3-4~---------|------------------|
G |-0----------------|-0----------------|------------------|-0--1~------------|
D |------------------|------------------|------------------|------------------|
A |------------------|------------------|------------------|------------------|
E |------------------|------------------|------------------|------------------|


[intro]

(riff1) G G/F# Em7 Cadd9
(riff 1+2) G G/F# Em7 Cadd9
(riff 1+2) G G/F# Em7 Cadd9
My life is brilliant

[verse 1]
G
My life is brilliant
G/F#
My love is pure
Em7
I saw an angel
Cadd9
Of that I'm sure

(riff1)
G
She smiled at me on the subway
G/F#
She was with another man
Em7
But I won't lose no sleep on that

'Cause I've got a plan


[chorus]

Cadd9 D G
You're beautiful You're beautiful
Cadd9 D G
You're beautiful it's true
Cadd9 D/F# G D/F# Em7
I saw your face in a crowded place
Cadd9 D/F# Em7
And I don't know what to do
(riff2)
Cadd9 D/F# G
'Cause I'll never be with you

G/F# Em7 Cadd9

[verse 2]

G
Yeah, she caught my eye
G/F#
As we walked on by
Em7
She could see from my face that I was
Cadd9
Fucking high
(riff1)
G G/F#
And I don't think that I'll see her again
Em7
But we shared a moment that will last till the end.

[chorus]

[bridge]
Cadd9 Em7 Cadd9 Em7 Cadd9 Em7 A7sus4 D/F#
La la la la la la la la la la la la laaaaaaaaaaaa

[chorus + outro]
Cadd9 D G
You're beautiful You're beautiful
Cadd9 D G
You're beautiful it's true.
Cadd9 D/F# G D/F# Em7
There must be an angel with a smile on her face
Cadd9 D/F# G D/F# Em7
When she thought up that I should be with you
Cadd9 D/F# Em7
But it's time to face the truth
Cadd9 D/F# G
I will never be with you


########################################################################

DE ONDERSTAANDE VERSIE IS MET CAPO OP 3 (tabbed by Mys11)

C x32013
G 320003
G/B x20003
Am7 x02213
Fadd9 xx3213
D7sus4 xx0213

NB: je kunt je pink dus laten staan op de hoge e-snaar.


*********
CAPO OP 3
*********


Intro (2X)

Gitaar 1
C G/B Am7 Fadd9
e |---------------|----------------|---------------|---------------|
B |---------------|----------------|---------------|---------------|
G |---------------|----------------|---------------|---------------|
D |-2-2-0-2—0h2---|----------------|-2-2-0-2--0h2--|-3-3-2-3--2h3--|
A |---------------|-2-2-0-2--0h2---|---------------|---------------|
E |---------------|----------------|---------------|---------------|


Gitaar 2
C G/B Am7 Fadd9
e |---------------|----------------|---------------|---------------|
B |---1-0-1-------|---1-0-1--3-----|--1-0-1--------|---------------|
G |---------------|----------------|---------------|---------------|
D |-2-------------|-2--------------|---------------|--2-3----------|
A |---------------|----------------|---------------|---------------|
E |---------------|----------------|---------------|---------------|





C G/B
My life is brilliant, my love is pure
Am7 Fadd9
I saw an angel, of that I'm sure
C G/B
She smiled at me on the subway, she was with another man
Am7
But I won't lose no sleep on that, 'cause I've got a plan



Fadd9 G C
You're beautiful, you're beautiful
Fadd9 G C
You're beautiful, it's true
Fadd9 G C G/B Am7
I saw your face in a crowded place
Fadd9 G Am7
And I don't know what to do
Fadd9 G C G/B - Am7 - Fadd9
'Cause I'll never be with you



C G/B
Yeah, she caught my eye ,as we walked on by
Am7 Fadd9
She could see from my face that I was fucking high
C G/B
And I don't think that I'll see her again
Am7
But we shared a moment that will last till the end


Fadd9 G C
You're beautiful, you're beautiful
Fadd9 G C
You're beautiful, it's true
Fadd9 G C G/B Am7
I saw your face in a crowded place
Fadd9 G Am7
And I don't know what to do
Fadd9 G C
'Cause I'll never be with you



Fadd9 Am7 Fadd9 Am7 Fadd9 Am7 D7sus4 G/B
La la la la la la la la la la la la laaaaaaaaaaaa



Fadd9 G C
You're beautiful, you're beautiful
Fadd9 G C
You're beautiful, it's true
Fadd9 G C G/B Am7
There must be an angel with a smile on her face
Fadd9 G C G/B Am7
When she thought up that I should be with you
Fadd9 G Am7
But it's time to face the truth
Fadd9 G C
I will never be with you


ProTabs promo.jpg

Onbeperkt en gratis toegang tot alle 25.000
Tabs & Chords en direct meespelen met

Artiest Liedje

...

Gitaarakkoorden james blunt - You're beautiful

Dankzij de bladmuziek op deze pagina wordt het een stuk makkelijker om met de gitaar mee te spelen met You're beautiful van james blunt De ProTabs van Gitaartabs worden door onze professionele gitaardocenten samengesteld. De tabs en chords zijn door leden zelf geplaatst. Deze undefined van james blunt met You're beautiful is voor je geschreven door mys11

Tabs & Chords van james blunt - You're beautiful

Bij de ProTabs delen we niet alleen de tablatuur maar ook de speelwijze van You're beautiful Met een beetje gitaar ervaring moet je dit gitaarliedje zeker kunnen spelen, maar als het niet lukt zijn we er altijd om je te helpen. Door een gratis account aan te maken krijg je niet alleen toegang tot deze tab ,akkoorden & tabs van You're beautiful maar kun je ook onbeperkt meespelen met een van de meer dan 25.000 andere tabs & chords in onze database.

Plaats opmerking

Verstuur

Beoordeel deze song

Rate UsDon’t love itNot greatGoodGreatLove itRate Us

Bedankt voor je beoordeling!