51st anniversary

Gitaarliedjes, tabs & akkoorden (chords) 51st anniversary - jimi hendrix

Songtype: Tab

arrow&v

Markeer als favoriet

Favoriet

Gemarkeerd als favoriet

Capo:

0

jimi hendrix

jimi hendrix

Song
Album
Categorie

51st anniversary

Downloads
169
Niveau
2

Geplaatst door
rick
ProTabs-promo.jpg

E||----------------------|----------------------|------------------------|
B||--7----7----7----7----|--7----7----7----7----|------------------------|
G||--x----x----x----x----|--x----x----x----x----|------------------------|
D||--9----9----9----9----|--9----9----9----9----|--------7------7-----7--|
A||--x----x----x----x----|--x----x----x----x----|--7h9----------7--9-----|
E||--7----7----7----7----|--7----7----7----7----|------------------------|



------------------------|-------------------|---------------------------------|
------------------------|--2----------------|--2--2-2-2-2-2-2-2-2-------------|
--7---------------------|--3----------------|--3--3-3-3-3-3-3-3-3-2-2-4-2-----|
--7h9-7-----------------|--4----------------|--4--4-4-4-4-4-4-4-4---------0-0-|
---------9--7------9---|--x----------------|--x------------------------------|
------------------------|--2----------------|--2------------------------------|



-----------5-------------|-----------------------------|
-----------5----------5--|-------5----------2----------|
--------x--6-------x--4--|-------4----------2--4-2-----|
--------x--7-------x--x--|----0--0--0-0-2h4--------4-0-|
--9--9--x--x-------x--x--|-------x---------------------|
--7--7-----5----5-----4--|-------4---------------------|



-----------5-------------|----------------------------|
--------7--5----------5--|-------5---------2----------|
--------x--6-------x--4--|-------4---------2--4-2-----|
-----9--9--7-------x--x--|----------0-2-4---------4p0-|
--9--9--9--x-------x--x--|----------------------------|
--7--7--7--5----5-----4--|----4-----------------------|



-----------5-------------|---------------------------|-----------5-------------|
-----------5----------5--|-------5-------------------|-----------5----------5--|
--------x--6-------x--4--|-------4--------7----------|--------x--6-------x--4--|
--------x--7-------x--x--|----------------7--9-7-----|--------x--7-------x--x--|
--9--9--x--x-------x--x--|----------7h-9---------9-0-|--9--9--x--x-------x--x--|
--7--7-----5----5-----4--|----4----------------------|--7--7-----5----5-----4--|



----------------------------|---------------------------|
-------5--------------------|---------------------------|
-------4---------2h4--x-x-x-|---------------------------|
----------2-2h4-------x-x-x-|---------------------------|
----------------------x-x-x-|---------7-----------5-----|
----4-----------------------|--5--7/9----3----5/7----0--|



----------------------------|-----------5-------------|
-----------------7----------|-----------5----------5--|
----9--7---------7----------|-----------6-------x--4--|
----9--7-----7---7--9p7-----|-----------7-------x--x--|
----------9--7h9--------9-x-|--------9--x-------x--x--|
----------------------------|--7--7--7--5----5-----4--|



----------------------------|-----------5-------------|
-------5--------------------|-----------5----------5--|
-------4---------2--4-2-----|--------x--6-------x--4--|
----------2-2-4---------4p0-|--------x--7-------x--x--|
----------------------------|--9--9--x--x-------x--x--|
----4-----------------------|--7--7-----5----5-----4--|



----------------------------|-----------5-------------|
-------5---------2----------|-----------5----------5--|
-------4--1------2--4-2-----|--------x--6-------x--4--|
------------2-4-----4-2-0-0-|--------x--7-------x--x--|
----------------------------|--9--9--x--x-------x--x--|
----4-----------------------|--7--7-----5----5-----4--|



-----------------------------|---------------------------|
-------5---------------------|---------------------------|
-------4----------2--4-2-----|---------------------------|
----------0-0-2h4--------4-0-|---------------------------|
-----------------------------|---------7-----------5-----|
----4------------------------|--5--7/9----3----5/7----0--|



---------------------------|-----------5-------------|
---------------------------|-----------5----------5--|
---------------------2-----|-----------6-------x--4--|
-----2--4-----2/4-0--2--0--|-----------7-------x--x--|
-----------0---------------|--9--9--9--x-------x--x--|
--0------------------------|--7--7--7--5----5-----4--|



---------------------------|-----------5-------------|
----------------2----------|-----------5----------5--|
----4-----------2--4-2-----|--------x--6-------x--4--|
-------0--2--4---------4-0-|--------x--7-------x--x--|
---------------------------|--9--9--x--x-------x--x--|
----4----------------------|--7--7-----5----5-----4--|



-----------------------------|-----------5-------------|
-------5---------------------|-----------5----------5--|
-------4----------2--4-2-----|-----------6-------x--4--|
----------0-0-2h4--------4-0-|-----------7-------x--x--|
-----------------------------|--9--9--9--x-------x--x--|
----4------------------------|--7--7--7--5----5-----4--|



-----------------------------|---------------------------|
-------5---------------------|---------------------------|
-------4----------2--4-2-----|---------------------------|
----------0-0-2h4--------4-0-|---------------------------|
-----------------------------|---------7-----------5--7~-|
----4------------------------|--5--7/9----3----5/7-------|



---------------------------|------------------3----|-------------------|
------------------7--------|------------------3----|--------------2----|
----------7-7-----7--------|--------x--7------4----|--------------3----|
----------7-7-9-7-----7h9--|--------x--x------5----|--------------4----|
------7/9------------------|--9--9--x--5------x----|--------------x----|
---------------------------|--7--7------------3----|--------------2----|



----------------------|----------------------|------------------------|
----------------------|----------------------|------------------------|
--4-------------------|----------------------|--------7------------7--|
--4-------------------|----------------------|--------7------------7--|
--2----2----2----2----|--2----2----2----2----|--7h9----------7--9-----|
----------------------|----------------------|------------------------|



------------------------|------------------|------------------|
------------------------|------------------|------------------|
--7h9-------------------|------------------|------------------|
--7h9-7-----------------|------------------|------------------|
---------9--7------9----|------------------|------------------|
------------------------|------------------|------------------|



---------0----------|--------------------|--------------------------|
---------0----------|--------------x-x---|-----------7----7---------|
---------1----------|--------------x-x---|-----7--9--7----7--7------|
--9------2----------|--------------x-x---|--9--7--9----------9p7----|
--x------2----------|--------------------|--9--------------------9--|
--7------0----------|--------------------|--------------------------|



-------------------------------|-----------5-------------|
-----7-------------------------|-----------5----------5--|
--7--7-------------------------|--------x--6-------x--4--|
--7--7--9p7--------7-7-9-7-----|--------x--7-------x--x--|
-------------------7-7---------|--9--9--x--x-------x--x--|
------------10--7----------7-7-|--7--7-----5----5-----4--|



-----------------------------|-----------5-------------|
-------5---------------------|-----------5----------5--|
-------4----------2--4-2-----|--------x--6-------x--4--|
----------0-0-2h4--------4-0-|--------x--7-------x--x--|
-----------------------------|--9--9--x--x-------x--x--|
----4------------------------|--7--7-----5----5-----5--|



----------------------------|-----------5-------------|
-----------7--------------7-|-----------5----------5--|
------x-x--7-----7--------7-|--------x--6-------x--4--|
------x-x--7-----7--9-7-----|--------x--7-------x--x--|
--------------9---------9---|--9--9--x--x-------x--x--|
----4-----------------------|--7--7-----5----5-----4--|



----------2--2-2--2-2--2-x-|-----------5-------------|
-------5--3b---3b---3b-3bx-|-----------5----------5--|
-------4-------------------|--------x--6-------x--4--|
---------------------------|--------x--7-------x--x--|
---------------------------|--9--9--x--x-------x--x--|
----4----------------------|--7--7-----5----5-----4--|



----------2--2-2--2-2--2-x-|---------------------------|
-------5--3b---3b---3b-3bx-|---------------------------|
-------4-------------------|---------------------------|
---------------------------|------------------------9--|
---------------------------|---------7-----------5--7--|
----4----------------------|--5--7/9----3----5/7----0--|



--------------------------------|-----------5-------------|
-------------7-7-7-7------------|-----------5----------5--|
-------9--7--7-7-7-7------------|--------x--6-------x--4--|
----9--9--7--7-7-7-7-9----------|--------x--7-------x--x--|
----7---------------------------|--9--9--x--x-------x--x--|
-----------------------10-10-10-|--7--7-----5----5-----4--|



----------2--2-2--2-2-----|-----------5-------------|
-------5--3b---3b---3b----|-----------5----------5--|
-------4---------------4--|--------x--6-------x--4--|
--------------------------|--------x--7-------x--x--|
--------------------------|--9--9--x--x-------x--x--|
----4---------------------|--7--7-----5----5-----4--|



----------2--2-2--2-2--2-x-|-----------5-------------|
-------5--3b---3b---3b-3bx-|-----------5----------4--|
-------4-------------------|--------x--6-------x--5--|
---------------------------|--------x--7-------x--x--|
---------------------------|--9--9--x--x-------x--x--|
----4----------------------|--7--7-----5----5-----4--|



----------2--2-2--2-2--2-x-|---------------------------|
----5--5--3b---3b---3b-3bx-|---------------------------|
----4--4-------------------|---------------------------|
----x----------------------|---------------------------|
----x----------------------|---------7-----------5--7--|
----4----------------------|--5--7/9----3----5/7----0--|



---------------------------|-----------5-------------|
----------7--7-7--7-7------|-----------5----------5--|
----------7b---7b---7b-----|--------x--6-------x--4--|
----9--9-------------------|--------x--7-------x--x--|
----7--7-------------------|--9--9--x--x-------x--x--|
-----------------------7-7-|--7--7-----5----5-----4--|



----------2--2-2--2-2--2-x-|-----------5-------------|
-------5--3b---3b---3b-3bx-|-----------5----------5--|
-------4-------------------|--------x--6-------x--4--|
---------------------------|--------x--7-------x--x--|
---------------------------|--9--9--x--x-------x--x--|
----4----------------------|--7--7-----5----5-----4--|



----------2--2-2--2-2--2-x-|-----------5-------------|
-------5--3b---3b---3b-3bx-|-----------5----------5--|
-------4-------------------|--------x--6-------x--4--|
---------------------------|--------x--7-------x--x--|
---------------------------|--9--9--x--x-------x--x--|
----4----------------------|--7--7-----5----5-----4--|



----------2--2-2--2-2--2-x-|---------------------------|
----5--5--3b---3b---3b-3bx-|---------------------------|
----4--4-------------------|---------------------------|
----x----------------------|---------------------------|
----x----------------------|---------7-----------5--7--|
----4----------------------|--5--7/9----4----5/7----0--|



---------------------------|-------------------3----|--------------2----|
----------7--7-7--7-7------|-----7-7-7--7------3----|--------------2----|
----------7b---7b---7b-----|-----8-8-8--7------4----|--------------3----|
----9--9-------------------|-----9-9-9--7------5----|--------------4----|
----7--7-------------------|------------5------x----|--------------x----|
-----------------------7-7-|--7----------------3----|--------------2----|



----------------------|----------------------|------------------------|
----------------------|----------------------|------------------------|
--4-------------------|----------------------|------------------------|
--4----x----x---------|----------------------|--------7------------7--|
-------x----x----2----|--2----2----2----2----|--7h9----------7--9-----|
----------------------|----------------------|------------------------|



------------------------|------------------|------------------|
------------------------|------------------|------------------|
--7---7-----------------|------------------|------------------|
--7h9-7-----------------|------------------|------------------|
---------9--7------9----|------------------|------------------|
------------------------|------------------|------------------|



------------------------|------------------------|------------------|
------------------------|------------------------|------------------|
--------7------------7--|--7h9-------------------|------------------|
--7-----7------7-----7--|--7h9-7--9--7------9----|------------------|
--7h-9------------9-----|---------9--7------9----|------------------|
------------------------|------------------------|------------------|



------------------|------------------------|------------------------|
------------------|------------------------|------------------------|
------------------|--------7------------7--|--7h9-7-----------------|
------------------|--7h-9--7------7--9--7--|--7h9-7--9--7------9----|
------------------|--7h-9---------7--9-----|---------9--7------9----|
------------------|------------------------|------------------------|



------------------|------------------|--7-----0----------|------------------|
------------------|------------------|--7-----0----------|------------------|
------------------|------------------|--x------1----------|------------------|
------------------|------------------|--9-----2----------|------------------|
------------------|------------------|--x------2----------|------------------|
------------------|------------------|--7-----0----------|------------------|



------------------------------------|--------------------------------------|
------------------------------------|--------------------------------------|
--11--11-11-11-11-9--9-9-9-9-7--7-7-|--9-9-9-x-11-11-11-11---------7/9-9-9-|
--x---x--x--x--x--x--x-x-x-x-x--x-x-|--x-x-x-x-x--x--x--x--7-7-7-7-x---x-x-|
--9---9--9--9--9--7--7-7-7-7-5--5-5-|--7-7-7-x-9--9--9--9--x-x-x-x-5/7-7-7-|
------------------------------------|----------------------5-5-5-5---------|



-----------5-------------|----------------------------------|
-----------5----------5--|----5-----------------------------|
--------x--6-------x--4--|----4-x-9/11-11-11-9-9-9-9-7------|
--------x--7-------x--x--|----x-x-x----------x-x-x-x-x--9-9-|
--9--9--x--x-------x--x--|----x-x-7/9--9--9--7-7-7-7-5--x-x-|
--7--7-----5----5-----4--|----4-------------------------7-7-|



------------5-------------|--------------------------------|
-----7-7-7--5----5-----5--|--------------------------------|
-----x-x-x--6----6--x--4--|----x--9/11-11-11-9--9-7-7--7---|
--9--9-9-9--7----7--x--x--|----x--x----x--x--x--x--------9-|
--x--x-x-x--x-------x--x--|----x--7/9--9--9--7--7-5-5--5-x-|
--7--7-7-7--5----------4--|------------------------------7-|



-----------5----5--------|----------------------------------|
--------7--5----5-----5--|----------------------------------|
--------x--6----6--x--4--|----7--11/13-13---11--11-11-9--7--|
--9--9--9--7----7--x--x--|----x--x--x--x--0-x---x--x--x--x--|
--x--x--x--x----x--x--x--|----5--9/-11-11---9---9--9--7--5--|
--7--7--7--5----5-----4--|----------------------------------|



------------5----5--------|------------------------------|
-----7-7----5----5-----5--|-------5-5---------2----------|
-----x-x----6----6--x--4--|----4--4-4---4-----2--4p2-----|
--9--9-9-9--7----7--x--x--|-------x-x-0-4-2h4--------4p0-|
--x------x--x----x--x--x--|-------x-x--------------------|
--7------7--5----5-----4--|-------4-4--------------------|



-----------5-------------|---------------------------|--------------------3----|
-----------5----------5--|-------5--5-5-7-5-5--5-----|--4--4-4-4--7-------3----|
-----------6-------x--4--|----4--4--4-4-4-4-4--4-----|--4--4-4-4--7-------4----|
--9--9-----7-------x--x--|----x-----x-x-----x--x-----|--4--4-4-4--7-------5----|
--9--9--0--x-------x--x--|----x-----x-x-----x--0--0--|--2--2-2-2--5-------x----|
--7--7-----5----5-----4--|----4-----4-4-----4--------|-----------------0--3----|



-------------------|--------------------3----|------5p-3--5p-3--5p-3--|
--------------2----|--4--4-4-4--7-------3----|------3-----3-----3-----|
--------------3----|--4--4-4-4--7-------4----|------4-----4-----4-----|
--------------4----|--4--4-4-4--7-------5----|------------------------|
--------------x----|--2--2-2-2--5-------x----|------------------------|
--------------2----|-----------------0--3----|------------------------|



--5p-3--5p-3--5p-3--5p-3--|--5p-3--5p-3--5p-3--5p-3--|
--3-----3-----3-----3-----|--3-----3-----3-----3-----|
--4-----4-----4-----4-----|--4-----4-----4-----4-----|
--------------------------|--------------------------|
--------------------------|--------------------------|
--------------------------|--------------------------|



--5p-3--5p-3--5p-3--5p-3--|--5p-3--5p-3--5p-3--5p-3--|
--3-----3-----3-----3-----|--3-----3-----3-----3-----|
--4-----4-----4-----4-----|--4-----4-----4-----4-----|
--------------------------|--------------------------|
--------------------------|--------------------------|
--------------------------|--------------------------|



--5p-3--5p-3--5p-3--5p-3--|--5p-3--5p-3--5p-3--5p-3--|
--3-----3-----3-----3-----|--3-----3-----3-----3-----|
--4-----4-----4-----4-----|--4-----4-----4-----4-----|
--------------------------|--------------------------|
--------------------------|--------------------------|
--------------------------|--------------------------|



--5p-3--5p-3--5p-3--5p-3--|--5p-3--5p-3--5p-3--5p-3--||
--3-----3-----3-----3-----|--3-----3-----3-----3-----||
--4-----4-----4-----4-----|--4-----4-----4-----4-----||
--------------------------|--------------------------||
--------------------------|--------------------------||
--------------------------|--------------------------||

ProTabs promo.jpg

Onbeperkt en gratis toegang tot alle 25.000
Tabs & Chords en direct meespelen met

Artiest Liedje

...

Gitaarakkoorden jimi hendrix - 51st anniversary

Dankzij de bladmuziek op deze pagina wordt het een stuk makkelijker om met de gitaar mee te spelen met 51st anniversary van jimi hendrix De ProTabs van Gitaartabs worden door onze professionele gitaardocenten samengesteld. De tabs en chords zijn door leden zelf geplaatst. Deze undefined van jimi hendrix met 51st anniversary is voor je geschreven door rick

Tabs & Chords van jimi hendrix - 51st anniversary

Bij de ProTabs delen we niet alleen de tablatuur maar ook de speelwijze van 51st anniversary Met een beetje gitaar ervaring moet je dit gitaarliedje zeker kunnen spelen, maar als het niet lukt zijn we er altijd om je te helpen. Door een gratis account aan te maken krijg je niet alleen toegang tot deze tab ,akkoorden & tabs van 51st anniversary maar kun je ook onbeperkt meespelen met een van de meer dan 25.000 andere tabs & chords in onze database.

Plaats opmerking

Verstuur

Beoordeel deze song

Rate UsDon’t love itNot greatGoodGreatLove itRate Us

Bedankt voor je beoordeling!