Fire

Gitaarliedjes, tabs & akkoorden (chords) Fire - jimi hendrix

Songtype: Tab

arrow&v

Markeer als favoriet

Favoriet

Gemarkeerd als favoriet

Capo:

0

jimi hendrix

jimi hendrix

Song
Album
Categorie

Fire

Downloads
346
Niveau
3

Geplaatst door
rick
ProTabs-promo.jpg

e---------------------------------------------------------------------------
B---------------------------------------------------------------------------
G--13-12-10s12---------13-12s19--10s12-------------------------------------
D---------------12-12------------------12-12-----10-12----12--------------
A--11-10--8s10---------11-10/-----8s10---------12--------------------------
E---------------10-10------------------10-10------------------------------

1st verse You don't care for me, I don't care about that
e---------------------------------------------------------------------------
B---------------------------------------------------------------------------
G---------------------------------------------------------------------------
D---------------------------------------------------------------------------
A-------3--5--5---------3--5--5---------------------------------------------
E----5---------------5------------------------------------------------------

Ya' got a new fool, I like it like that I have only one
e---------------------------------------------------------------------------
B---------------------------------------------------------------------------
G---------------------------------------------------------------------------
D---------------------------------------------------------------------------
A-------3--5--5--------------------------------------3--5--5----------------
E----5--------------------------------------------5-------------------------

a burnin' desire Let me stand next to your pyre!
e---------------------------------------------------------------------------
B---------------------------------------------------------------10v---------
G-----------------------------------------------------------12bh-------(12)-
D---------------------------------------------------------------------------
A-----------------------3--5--5---------------------------------------------
E--------------------5------------------------------------------------------

Chorus Let me stand next to your fire! etc.--> see lyrics at end file
D(add9) C(add9) D C(add9)/A
e-----10--12--10--10--10----------------------10--10--10--10--10-----------
B-----10--10--10---8---8----------------------10--10--10---8---8-8---12-12-
G-----11--11--11---9---9----10-12s10----------11--11--11---9---9-9---12-12s
D-----12------12--10------------------12----12-----12------10------/12------
A------------------------/12------------------------------------------------
E-10-------------------------------------10---------------------------------
T T

D C(add9)/A D(add9) C(add9)/A
e-------------10-10-10-10-10---10------10----------10----12----10-----------
B-------------10-10-10-10--8---8---/12-------------10-10-10-10--8-8--------
Gs10----------11-------11--9-9----9-------12-------11-11-11-11--9-9--------
D----12-------12----------10--------------------------12----12--------------
A--------------------------------------------------------------------10s12--
E-------10-10--------------------------------10-10--------------------------
T T
2nd Verse
D N.C.
e--------------10-----------------------------------------------------------
B--------------10-----------------------------------------------------------
G--10-12s10----11-----------------------------------------------------------
D--10-12s10-12-12--------10-12-10s12-------10-12--10s12------10-12-12-------
A-----------12-12----/12----------------12----------------12----------------
E--------------10-----------------------------------------------------------


e-------------------------------------------10v-----------------------------
B---------------------------------------12b---------------------------------
G---------------------------------------------------------------------------
D-----10-12-10s12-------10-12-12--------------------------------------------
A--12----------------12-----------------------------------------------------
E---------------------------------------------------------------------------

Chorus
D C(add9) C(add9)
e---10-10----10-10-10--------------------------------------10---------------
B---10-10----10--8--8-8-8--------------------10----10-------8--8-----10-12-
G---11----11-11--9----9------10-12s10--------11-11-11--11---9--9-----10-12s
D---12----12----10--------------------12-----12-12-12--12--10-10--/12------
A------------------------/12------------------------------------------------
E-10------------------------------------10-10-------------------------------
T T

D C(add9) D C(add9)
e-------------10----------10---10-----10-12s10-----10-------------10--------
B-------------10-10-10-10--8---8---/12-------------10-10-10-10-----8--------
Gs10----------11----11-11--9------9-----------12---11-11-11-11-11--9--------
D----12-------12----12----10-----------------------12-12-12-12-12-10--------
A---------------------------------------------------------------------------
E--------10-------------------------------------10--------------------------
T T
Bridge
C D C(add9) A A5 C5
e-----------------------------10-------------------5------------------------
B-----------10-----------------8--------5----------5--5---------------------
G---9s11----11-----------------9--------6----------6--6---------------------
D--10s12----12--------(12)10-10--------7-------------7---------------------
A---------------------------------------7-------------7------7s10-----------
E------------------------------8--------5--------------------5s8-------8---
(fuzz on) T Let ring

Guitar Solo:
N.C. (E)
e-----12v-----12---------------------------12v-----12-----------------------
B--15b----15hb--(15cb)-(15)------------15b-----15b----15--12-------12--15bv-
G---------------------------12-(12v)---------------------------14b----------
D---------------------------------------------------------------------------
A---------------------------------------------------------------------------
E---------------------------------------------------------------------------

e------12-----12-----15------15-------------12-----12-----------------------
B--15b----15hb--15cb----15cb----15hb(15)-15b---15hb--(15)s12-----12---------
G------------------------------------------------------------14b---12v-(12)
D---------------------------------------------------------------------------
A---------------------------------------------------------------------------
E---------------------------------------------------------------------------

N.C. That's what I'm talking about!
e---------------------------------------------------------------------------
B---------------------------------------------------------------------------
G--13-12---10s12-------------------13----------12----10s12----------------
D------------------12-12--------------------------------------12-12------10
A--11-10----8s10-------------------11----------10-----8s10-----------12---
E------------------10-10--------------------------------------10-10--------
(fuzz off)


e---------------------------------------------------------------------------
B---------------------------------------------------------------------------
G-------------------------------------------------------------------12------
D---12-10s12--------10-12-10s12-----10-12-10s12------10-12-12----10-12-10s12
A----------------12---------------12--------------12-----------12-----------
E---------------(12)--------------------------------------------------------

(w/bar -2.5)
e---------------------------------------------------------------------------
B------------------------------0--------------------------------------------
G------------------------------0--------------------------------------------
D------10-12-12----------------0--------------------------------------------
A---12----------------------------------------------------------------------
E---------------------------------------------------------------------------
(fuzz on)

Chorus
D C(add9) D C(add9) C
e-10--10----------10--10--------------------10-----12--10--10---------------
B-10--10--10--10---8---8--------------------10-10--10--10---8---8----12-12s
G-11--11--11--11---9---9---------------0----11-11--11-------9---9----12-12s
D-12--12--12--12--10-----10------12----0----12-----------------10-/12------
A--------------------------10s14---14--------------------------------------
E-10-------------------------------------10---------------------------------
T T

D C D C(add9)
e-----------------------------------10----------------------10--------------
Bs10------10-10-10-10--8--8-8-10s12---12s10--------10-10-10--8--8----------
Gs10------11-11-11-11--9--9------------------------11-11-11--9--9------10--
D----12---12----12----10-10-----------------12-----12-12----10-10--/12-----
A---------------------------------------------------------------------------
E------10---------------------------------------10--------------------------
T T

Guitar Solo
E(add9) N.C.
e---------------------------14-12--------12v---------12-------12-----12----
B----------12---------12-12-12-12----15b-------------12---15b----15b----

ProTabs promo.jpg

Onbeperkt en gratis toegang tot alle 25.000
Tabs & Chords en direct meespelen met

Artiest Liedje

...

Gitaarakkoorden jimi hendrix - Fire

Dankzij de bladmuziek op deze pagina wordt het een stuk makkelijker om met de gitaar mee te spelen met Fire van jimi hendrix De ProTabs van Gitaartabs worden door onze professionele gitaardocenten samengesteld. De tabs en chords zijn door leden zelf geplaatst. Deze undefined van jimi hendrix met Fire is voor je geschreven door rick

Tabs & Chords van jimi hendrix - Fire

Bij de ProTabs delen we niet alleen de tablatuur maar ook de speelwijze van Fire Met een beetje gitaar ervaring moet je dit gitaarliedje zeker kunnen spelen, maar als het niet lukt zijn we er altijd om je te helpen. Door een gratis account aan te maken krijg je niet alleen toegang tot deze tab ,akkoorden & tabs van Fire maar kun je ook onbeperkt meespelen met een van de meer dan 25.000 andere tabs & chords in onze database.

Plaats opmerking

Verstuur

Beoordeel deze song

Rate UsDon’t love itNot greatGoodGreatLove itRate Us

Bedankt voor je beoordeling!