I don't live today

Gitaarliedjes, tabs & akkoorden (chords) I don't live today - jimi hendrix

Songtype: Tab

arrow&v

Markeer als favoriet

Favoriet

Gemarkeerd als favoriet

Capo:

0

jimi hendrix

jimi hendrix

Song
Album
Categorie

I don't live today

Downloads
116
Niveau
2
Geplaatst door
rick
ProTabs-promo.jpg

E---------------------------------II
B---------------(3)-(3)----------II
G--------3---(3)-(3)---3---5--II
D-3--5--------------------------II
A---------------------------------II
E---------------------------------II
~~ Play this riff 4 times
Main riff:

Will I live tomorrow?!........

E-----------------------------II
B-----------------------------II
G-3-3-----------------------II
D--------5--3-3-------------II
A-----------------3-3~~~---II
E------------------------------II
~~ This riff is played and changed around a bit
from line to line in the song. The changes are:

E-------------------------------II
B-------------------------------II
G--3-3------------------------II
D--------5--3-3---------------II
A-----------------3-1~~~----II
E--------------------------{or this}--3~~~----II
~~ And the other change is:

E-------------------------------II
B-------------------------------II
G-3-3----------------5~~~---II
D------5--3-3-----------------II
A----------------3-------------II
E-------------------------------II
~~The changes are very subtle. Just listen to the
song, and you'll get it right!

The "I DONT.... LIVE TODAY!" part is:

E--------------------------------------II
B--(10)--(10)-----------(10)--(10)------II
G--(10)--(10)-----------(10)--(10)------II
D-------------------------------------II
A-------------------------------------II
E--------------------------------------II
~~Do a 1/4 bend each time the chord is hit. SLASH
is doing some other little runs within the pauses
but they're mostly add-here notes. So, just hit a
note in the area and if it sounds right, it's
most likely right!

Notation: the (7)(7) or (3)-(3) thing means its a
chord and both the notes are struck together!
The ~~~~ means to sustain the note!

The song is pretty cool! I really dig jamming along
the radio to it! Slash is amazing on this one! He
is really getting into it. So, play with a lot of
feeling like he does, and it'll be pretty easy!

ProTabs promo.jpg

Onbeperkt en gratis toegang tot alle 25.000
Tabs & Chords en direct meespelen met

Artiest Liedje

...

Gitaarakkoorden jimi hendrix - I don't live today

Dankzij de bladmuziek op deze pagina wordt het een stuk makkelijker om met de gitaar mee te spelen met I don't live today van jimi hendrix De ProTabs van Gitaartabs worden door onze professionele gitaardocenten samengesteld. De tabs en chords zijn door leden zelf geplaatst. Deze undefined van jimi hendrix met I don't live today is voor je geschreven door rick

Tabs & Chords van jimi hendrix - I don't live today

Bij de ProTabs delen we niet alleen de tablatuur maar ook de speelwijze van I don't live today Met een beetje gitaar ervaring moet je dit gitaarliedje zeker kunnen spelen, maar als het niet lukt zijn we er altijd om je te helpen. Door een gratis account aan te maken krijg je niet alleen toegang tot deze tab ,akkoorden & tabs van I don't live today maar kun je ook onbeperkt meespelen met een van de meer dan 25.000 andere tabs & chords in onze database.

Plaats opmerking

Beoordeel deze song

Rate UsDon’t love itNot greatGoodGreatLove itRate Us

Bedankt voor je beoordeling!