Voodoo chile

Gitaarliedjes, tabs & akkoorden (chords) Voodoo chile - jimi hendrix

Songtype: Tab

arrow&v

Markeer als favoriet

Favoriet

Gemarkeerd als favoriet

Capo:

0

jimi hendrix

jimi hendrix

Song
Album
Categorie

Voodoo chile

Downloads
811
Niveau
1
Geplaatst door
gitaartabs
ProTabs-promo.jpg

Jimi Hendrix - Voodoo Chile

intro

|-xx-x-xx-|
|-xx-x-xx-|
|-xx-x-xx-|
|-xx-x-xx-|
|---------|
|---------|Dit speel je op de 9de fret, een paar keer vaker.

|---------------------------------xxxx-|
|---------------------------------xxxx-|
|-9-----7------------9-7---9---7--xxxx-| 4x
|---7h9---5-5-7p5--------9--------xxxx-|
|-----------------7--------------------|
|--------------------------------------|


|-----------------|
|-----------------|
|-12^12^10--------|
|-----------------|
|-----------------|
|----------17///1-|Hierna speel je het volgende stukje meerdere keren.

[1]
|---------------|
|---------------|
|----2p0--------|
|-22-----2-2222-|
|-22-------2222-|
|-00-------0030-| In de chorus, wanneer er gezongen wordt.


[2]
|-------------------|
|-------------------|
|-44444444-22222222-|
|-00000000-00000000-|
|-55555555-44444444-|
|-------------------|Dit speel je als een soort tussenstukje.


|------------|
|------------|
|------2p0---|
|-2222-----2-|
|-2222-------|Speel dit net zo vaak als het Stukje dat boven aangegeven staat met de [1]
|-0030-------|


|-------------------|
|-------------------|
|-22222222-44444444-|
|-33333333-55555555-|
|-22222222-44444444-|Dit is i.p.v. de [2] maar dan net anders.
|-------------------|

ProTabs promo.jpg

Onbeperkt en gratis toegang tot alle 25.000
Tabs & Chords en direct meespelen met

Artiest Liedje

...

Gitaarakkoorden jimi hendrix - Voodoo chile

Dankzij de bladmuziek op deze pagina wordt het een stuk makkelijker om met de gitaar mee te spelen met Voodoo chile van jimi hendrix De ProTabs van Gitaartabs worden door onze professionele gitaardocenten samengesteld. De tabs en chords zijn door leden zelf geplaatst. Deze undefined van jimi hendrix met Voodoo chile is voor je geschreven door gitaartabs

Tabs & Chords van jimi hendrix - Voodoo chile

Bij de ProTabs delen we niet alleen de tablatuur maar ook de speelwijze van Voodoo chile Met een beetje gitaar ervaring moet je dit gitaarliedje zeker kunnen spelen, maar als het niet lukt zijn we er altijd om je te helpen. Door een gratis account aan te maken krijg je niet alleen toegang tot deze tab ,akkoorden & tabs van Voodoo chile maar kun je ook onbeperkt meespelen met een van de meer dan 25.000 andere tabs & chords in onze database.

Plaats opmerking

Beoordeel deze song

Rate UsDon’t love itNot greatGoodGreatLove itRate Us

Bedankt voor je beoordeling!