Chinees geluid

Gitaarliedjes, tabs & akkoorden (chords) Chinees geluid - joël de vries

Songtype: Tab

arrow&v

Markeer als favoriet

Favoriet

Gemarkeerd als favoriet

Capo:

0

joël de vries

joël de vries

Song
Album
Categorie

Chinees geluid

Downloads
392
Niveau
2
geluiden

Geplaatst door
gitaartabs
ProTabs-promo.jpg

------------------------------------
----------3---1--------------------
------2------------2---0--0-2----
-0---------------------------------
-----------------------------------
-----------------------------------

-------------------------------------------3----1---------------------------
----------3---1-------------------------------------3----1-----------------
------2------------2---0--0-2-------------------------------2--0--0-2---
-0--------------------------------------------------------------------------
-----------------------------------------------------------------------------
-----------------------------------------------------------------------------


Uitleg:

Je moet dit nummer snel spelen als je hem langzaam speelt klinkt het heel saai.
Als je hem echt heel snel kan klinkt het echt gaaf.






ProTabs promo.jpg

Onbeperkt en gratis toegang tot alle 25.000
Tabs & Chords en direct meespelen met

Artiest Liedje

...

Gitaarakkoorden joël de vries - Chinees geluid

Dankzij de bladmuziek op deze pagina wordt het een stuk makkelijker om met de gitaar mee te spelen met Chinees geluid van joël de vries De ProTabs van Gitaartabs worden door onze professionele gitaardocenten samengesteld. De tabs en chords zijn door leden zelf geplaatst. Deze undefined van joël de vries met Chinees geluid is voor je geschreven door gitaartabs

Tabs & Chords van joël de vries - Chinees geluid

Bij de ProTabs delen we niet alleen de tablatuur maar ook de speelwijze van Chinees geluid Met een beetje gitaar ervaring moet je dit gitaarliedje zeker kunnen spelen, maar als het niet lukt zijn we er altijd om je te helpen. Door een gratis account aan te maken krijg je niet alleen toegang tot deze tab ,akkoorden & tabs van Chinees geluid maar kun je ook onbeperkt meespelen met een van de meer dan 25.000 andere tabs & chords in onze database.

Plaats opmerking

Verstuur

Beoordeel deze song

Rate UsDon’t love itNot greatGoodGreatLove itRate Us

Bedankt voor je beoordeling!