This is me

Gitaarliedjes, tabs & akkoorden (chords) This is me - jonas brothers

Songtype: Tab

arrow&v

Markeer als favoriet

Favoriet

Gemarkeerd als favoriet

Capo:

0

jonas brothers

jonas brothers

Song
Album
Categorie

This is me

Downloads
73
Niveau
2
Geplaatst door
rjrosseboom
ProTabs-promo.jpg



intro and verse together:
e|------4-----------2-1---------------------------|
B|----2---2----2------------2-4-2----2---4--2-----|
G|--3---------------------1-----------------------|
D|-----------4---4-----------------1---1----------| x5 til chorus
A|------------------------------------------------|
E|------------------------------------------------|

Pre-Chorus
e|----------------------------------------------------------------------------|
B|----------------------------------------------------------------------------|
G|--3~~~~~~~~--------5-5-5-5-5-----------------------------------------|
D|--4~~~~~~~~--------6-6-6-6-6-----------------------------------------|
A|--4~~~~~~~~--------6-6-6-6-6-----------------------------------------|
E|--2~~~~~~~~--------4-4-4-4-4-----------------------------------------|


Chorus:
e|-----------------------------------------------------------------------------|
B|-----------------------------------------------------------------------------|
G|---3------6--------------------3------6-------------3------6--------------|
D|---4------6-x4---6------8------4------6-x4---6------4------6-x4-------|
A|---4-x4---4------6-x4---8-x4---4-x4---4------6-x8---4-x4---4-------|
E|---2-------------4------6------2-------------4------2----------------------|


e|------------------------------------------------------------------------------|
B|------------------------------------------------------------------------------|
G|------------------------------------------------------------------------------|
D|--6------8------4-----6-----------------------------------------------------|
A|--6-x4---8-x4---4-x8--6-x5----------------------------------------------|
E|--4------6------2-----4------------------------------------------------------|


Post Chorus:
e|------4-----------2-1---------------------------------------------------------|
B|----2---2----2------------2-4-2---------------------------------------------|
G|--3---------------------1----------------------------------------------------|
D|-----------4---4---------------------6-6------------------------------------|
A|-------------------------------------6-6-------------------------------------|
E|-------------------------------------4-4--------------------------------------|


A#m F#
e|--1---2---4---6---1---2---4---4---1---2---4---6---1---2---4-------------|
e|--1---2---4---6---1---2---4---4---1---2---4---6---1---2---4-------------|
B|--2---2---4---6---2---2---4---4---2---2---4---6---2---2---4-------------|
G|--3---3---6---8---3---3---6---4---3---3---6---8---3---3---6-------------|
D|--3---4---6---8---3---4---6---6---3---4---6---8---3---4---6---3-4--6----|
A|--1---4---4---6---1---4---4---6---1---4---4---6---1---4---4---3-4--6x5--|
E|--1---2-----------1---2-------4---1---2-----------1---2-------1-2--4----|


REPEAT CHORUS


e|-------------------------------6------------------------11--------11-------|
B|--6--7--9--7----6-----6--7--9-------6--7--9--7----6---------9--------------|
G|-------------------6---------------------------------6---------11----------|
D|---------------------------------------------------------------------------|
A|---------------------------------------------------------------------------|
E|---------------------------------------------------------------------------|




e|---------------------------------|
B|---------------------------------|
G|---------------------------------|
D|---4--3--6--6/8--4~~~~~~---------|
A|---4--3--6--6/8--4~~~~~~---------|
E|---2--1--4--4/6--2~~~~~~---------|

ProTabs promo.jpg

Onbeperkt en gratis toegang tot alle 25.000
Tabs & Chords en direct meespelen met

Artiest Liedje

...

Gitaarakkoorden jonas brothers - This is me

Dankzij de bladmuziek op deze pagina wordt het een stuk makkelijker om met de gitaar mee te spelen met This is me van jonas brothers De ProTabs van Gitaartabs worden door onze professionele gitaardocenten samengesteld. De tabs en chords zijn door leden zelf geplaatst. Deze undefined van jonas brothers met This is me is voor je geschreven door rjrosseboom

Tabs & Chords van jonas brothers - This is me

Bij de ProTabs delen we niet alleen de tablatuur maar ook de speelwijze van This is me Met een beetje gitaar ervaring moet je dit gitaarliedje zeker kunnen spelen, maar als het niet lukt zijn we er altijd om je te helpen. Door een gratis account aan te maken krijg je niet alleen toegang tot deze tab ,akkoorden & tabs van This is me maar kun je ook onbeperkt meespelen met een van de meer dan 25.000 andere tabs & chords in onze database.

Plaats opmerking

Beoordeel deze song

Rate UsDon’t love itNot greatGoodGreatLove itRate Us

Bedankt voor je beoordeling!