Hark! the herald angles sing

Gitaarliedjes, tabs & akkoorden (chords) Hark! the herald angles sing - Kerstliedjes

Songtype: Tab

arrow&v

Markeer als favoriet

Favoriet

Gemarkeerd als favoriet

Capo:

0

Kerstliedjes

Kerstliedjes

Song
Album
Categorie

Hark! the herald angles sing

Downloads
516
Niveau
1

Geplaatst door
gitaartabs
ProTabs-promo.jpg

Hark the herald angels sing
"Glory to the newborn King!
Peace on earth and mercy mild
God and sinners reconciled"
Joyful, all ye nations rise
Join the triumph of the skies
With the angelic host proclaim:
"Christ is born in Bethlehem"
Hark! The herald angels sing
"Glory to the newborn King!"

Christ by highest heav'n adored
Christ the everlasting Lord!
Late in time behold Him come
Offspring of a Virgin's womb
Veiled in flesh the Godhead see
Hail the incarnate Deity
Pleased as man with man to dwell
Jesus, our Emmanuel
Hark! The herald angels sing
"Glory to the newborn King!"

Hail the heav'n-born Prince of Peace!
Hail the Son of Righteousness!
Light and life to all He brings
Ris'n with healing in His wings
Mild He lays His glory by
Born that man no more may die
Born to raise the sons of earth
Born to give them second birth
Hark! The herald angels sing
"Glory to the newborn King!"


e-------------------------------------------------------------------------------------|
B----------------0-0----3-3-3-1-0------0-------------0-0----3------------------3-3-3--|
G-----0-0----0-------2---------------2-------0-0---0------2----2-2--------------------|
D--0-------3------------------------------0------3--------------------3-3-2-0---------|
A-------------------------------------------------------------------------------------|
E-------------------------------------------------------------------------------------|

e ----------------------------|
B ---1-0-0-----3-3-3----1-0---|
G -0---------2--------0-------|
D ----------------------------|
A ----------------------------|
E ----------------------------|


e-----0-0-0-------------------------------0-0-0------------------------------------------------||
B-------------3-1-0-1-----0-1-3---------0-----------3-1-0--1-----0-1-3-------------------------||
G--2--------------------2--------0-0-2------------------------2----------0-0-2--0--------------||
D----------------------------------------------------------------------------------------------||
A----------------------------------------------------------------------------------------------||
E----------------------------------------------------------------en dit herhaal je steeds------||

ProTabs promo.jpg

Onbeperkt en gratis toegang tot alle 25.000
Tabs & Chords en direct meespelen met

Artiest Liedje

...

Gitaarakkoorden Kerstliedjes - Hark! the herald angles sing

Dankzij de bladmuziek op deze pagina wordt het een stuk makkelijker om met de gitaar mee te spelen met Hark! the herald angles sing van Kerstliedjes De ProTabs van Gitaartabs worden door onze professionele gitaardocenten samengesteld. De tabs en chords zijn door leden zelf geplaatst. Deze undefined van Kerstliedjes met Hark! the herald angles sing is voor je geschreven door gitaartabs

Tabs & Chords van Kerstliedjes - Hark! the herald angles sing

Bij de ProTabs delen we niet alleen de tablatuur maar ook de speelwijze van Hark! the herald angles sing Met een beetje gitaar ervaring moet je dit gitaarliedje zeker kunnen spelen, maar als het niet lukt zijn we er altijd om je te helpen. Door een gratis account aan te maken krijg je niet alleen toegang tot deze tab ,akkoorden & tabs van Hark! the herald angles sing maar kun je ook onbeperkt meespelen met een van de meer dan 25.000 andere tabs & chords in onze database.

Plaats opmerking

Verstuur

Beoordeel deze song

Rate UsDon’t love itNot greatGoodGreatLove itRate Us

Bedankt voor je beoordeling!