Let it rock

Gitaarliedjes, tabs & akkoorden (chords) Let it rock - kevin rudolf ft lil wayne

Songtype: Tab

arrow&v

Markeer als favoriet

Favoriet

Gemarkeerd als favoriet

Capo:

0

kevin rudolf ft lil wayne

kevin rudolf ft lil wayne

Song
Album
Categorie

Let it rock

Downloads
110
Niveau
1
Geplaatst door
b-master
ProTabs-promo.jpg



Intro:
|---------------------------0-----------0----1---------------------------1---------1----0-------------------------0---------0---1------------------------------0----------------
|-------------3---3---------------------------------------3----3-------------3---------------------3---3-------------------------------------3---3-------------------3----------
|------2---------------2------2-------------------2----------------2--------------------------2------------2-----------2--------------2----------------2------------------------
|------------------------------------------------------------------------------------------------------------------------------------------------------------------------------------
|------------------------------------------------------------------------------------------------------------------------------------------------------------------------------------
|------------------------------------------------------------------------------------------------------------------------------------------------------------------------------------


herhaal dit het hele liedje :

------------------------------------------------------------------------------------------------------------------------------------------------------------------------------------
------------------------------------------------------------------------------------------------------------------------------------------------------------------------------------
------------------------------------------------------------------------------------------------------------------------------------------------------------------------------------
---3-------5-----7----3-----5-----7------3-----5-----7------------8-------5------7-------8-----5----7----------------------------------------------------------------------
---3-------5-----7----3-----5-----7------3----5------7------------8-------5------7-------8-----5----7----------------------------------------------------------------------
---1-------3-----5----1-----3-----5-----1-----3------5------------6-------3------5-------6-----3----5----------------------------------------------------------------------

ProTabs promo.jpg

Onbeperkt en gratis toegang tot alle 25.000
Tabs & Chords en direct meespelen met

Artiest Liedje

...

Gitaarakkoorden kevin rudolf ft lil wayne - Let it rock

Dankzij de bladmuziek op deze pagina wordt het een stuk makkelijker om met de gitaar mee te spelen met Let it rock van kevin rudolf ft lil wayne De ProTabs van Gitaartabs worden door onze professionele gitaardocenten samengesteld. De tabs en chords zijn door leden zelf geplaatst. Deze undefined van kevin rudolf ft lil wayne met Let it rock is voor je geschreven door b-master

Tabs & Chords van kevin rudolf ft lil wayne - Let it rock

Bij de ProTabs delen we niet alleen de tablatuur maar ook de speelwijze van Let it rock Met een beetje gitaar ervaring moet je dit gitaarliedje zeker kunnen spelen, maar als het niet lukt zijn we er altijd om je te helpen. Door een gratis account aan te maken krijg je niet alleen toegang tot deze tab ,akkoorden & tabs van Let it rock maar kun je ook onbeperkt meespelen met een van de meer dan 25.000 andere tabs & chords in onze database.

Plaats opmerking

Beoordeel deze song

Rate UsDon’t love itNot greatGoodGreatLove itRate Us

Bedankt voor je beoordeling!