Altijd is kortjakje ziek

Gitaarliedjes, tabs & akkoorden (chords) Altijd is kortjakje ziek - Kinderliedjes

Songtype: Tab

arrow&v

Markeer als favoriet

Favoriet

Gemarkeerd als favoriet

Capo:

0

Kinderliedjes

Kinderliedjes

Song
Album
Categorie

Altijd is kortjakje ziek

7703
Niveau
1
Geplaatst door
gitaartabs
ProTabs-promo.jpg




Altijd is Kortjakje ziek (kinderliedje)





Altijd is Kortjakje ziek
midden in de week maar 's zondags niet.
's Zondags gaat zij naar de kerk
met een boek vol zilverwerk.
Altijd is Kortjakje ziek
midden in de week maar 's zondags niet.


e----------------------------------------------------------------------
B----------------------------------------------------------------------
G--------0--0--2--2--0-----------------------------------------------
D---------------------------3-3-3-3---2--2----0--0------------------
A--3--3------------------------------------------------3---------------
E------------------------------------------------------------------------

e-----------------------------------------------------------------------
B-----------------------------------------------------------------------
G--0--0---------------------0--0--------------------------------------
D--------3--3--2--2--0-----------3--3--2--2--0---------------------
A-----------------------------------------------------------------------
E-----------------------------------------------------------------------

e-----------------------------------------------------------------------
B-----------------------------------------------------------------------
G----------0--0--2--2--0---------------------------------------------
D------------------------------3-3-3-3---2--2--0----0---------------
A--3--3-----------------------------------------------------3----------
E------------------------------------------------------------------------





Tekst varianten:

Altijd is Kortjakje ziek
midden in de week maar zondags niet.
Midden in de week wil zij niet wassen
zondags strikt ze de herendassen.
Altijd is Kortjakje ziek
midden in de week maar zondags niet.

Altijd is Kortjakje ziek
midden in de week maar zondags niet.
Zondags dan gaat zij ter kerken
midden in de week kan zij niet werken.
Altijd is Kortjakje ziek
midden in de week maar zondags niet.

Altijd is Kortjakje ziek
midden in de week maar zondags niet.
Zondags als haar vrijer komt
is Kortjakje goed gezond.
Altijd is Kortjakje ziek
midden in de week maar zondags niet.

Jan mijne man is altijd ziek
heel de week, maar 's zondags niet.
In de week gaat hij pintjes drinken
's zondags ligt hij in 't bed te stinken
en hij ronkt gelijk een kat:
wat een luie man is dat!

ProTabs promo.jpg

Onbeperkt en gratis toegang tot alle 25.000
Tabs & Chords en direct meespelen met

Artiest Liedje

...

Gitaarakkoorden Kinderliedjes - Altijd is kortjakje ziek

Dankzij de bladmuziek op deze pagina wordt het een stuk makkelijker om met de gitaar mee te spelen met Altijd is kortjakje ziek van Kinderliedjes De ProTabs van Gitaartabs worden door onze professionele gitaardocenten samengesteld. De tabs en chords zijn door leden zelf geplaatst. Deze undefined van Kinderliedjes met Altijd is kortjakje ziek is voor je geschreven door gitaartabs

Tabs & Chords van Kinderliedjes - Altijd is kortjakje ziek

Bij de ProTabs delen we niet alleen de tablatuur maar ook de speelwijze van Altijd is kortjakje ziek Met een beetje gitaar ervaring moet je dit gitaarliedje zeker kunnen spelen, maar als het niet lukt zijn we er altijd om je te helpen. Door een gratis account aan te maken krijg je niet alleen toegang tot deze tab ,akkoorden & tabs van Altijd is kortjakje ziek maar kun je ook onbeperkt meespelen met een van de meer dan 25.000 andere tabs & chords in onze database.

Plaats opmerking

Verstuur

Beoordeel deze song

Rate UsDon’t love itNot greatGoodGreatLove itRate Us

Bedankt voor je beoordeling! 

Downloads