Berend botje

Gitaarliedjes, tabs & akkoorden (chords) Berend botje - Kinderliedjes

Songtype: Tab

arrow&v

Markeer als favoriet

Favoriet

Gemarkeerd als favoriet

Capo:

0

Kinderliedjes

Kinderliedjes

Song
Album
Categorie

Berend botje

6043
Niveau
1
Geplaatst door
gitaartabs
ProTabs-promo.jpg

Berend Botje ging uit varen
met zijn scheepje naar Zuidlaren.
De weg was recht, de weg was krom
nooit kwam Berend Botje weerom.

Een, twee, drie, vier, vijf, zes, zeven
waar is Berend Botje gebleven?
Hij is niet hier, hij is niet daar
hij is naar Amerika!

Amerika, Amerika
drie maal in de rondte van je hopsasa!

e----------------------------------------------------------------------------------------------|
B---------------------------------------------------------------------3-1----------------------|
G----2-2-2-----2-2-2-------2-2-2-3--0-0-------0-0-0------0-0-----------------0-----------------|
D------------------------------------------------------------------------------2------3-3-3----|
A--3---------3-----------3------------------3----------3---------------------------------------|
E----------------------------------------------------------------------------------------------|

e----------------------------------------------------------------------------------------------|
B------------------------------------------------------------------------3-1-------------------|
G----2-2-2----2-2-2------2-2-2-2-3--0--0---------0-0-0-------0-0-------------0-----------------|
D------------------------------------------------------------------------------2-------3-3-3---|
A--3--------3----------3-----------------------3-----------3-----------------------------------|
E----------------------------------------------------------------------------------------------|

e----------------------------------------------------------|
B-3-1-----3-1------------------------------------1---------|
G-----3-2-----3-2---3-3-3-3---2-2-2-2----0-----------------|
D-----------------------------------------------------3----|
A----------------------------------------------------------|
E----------------------------------------------------------|

ProTabs promo.jpg

Onbeperkt en gratis toegang tot alle 25.000
Tabs & Chords en direct meespelen met

Artiest Liedje

...

Gitaarakkoorden Kinderliedjes - Berend botje

Dankzij de bladmuziek op deze pagina wordt het een stuk makkelijker om met de gitaar mee te spelen met Berend botje van Kinderliedjes De ProTabs van Gitaartabs worden door onze professionele gitaardocenten samengesteld. De tabs en chords zijn door leden zelf geplaatst. Deze undefined van Kinderliedjes met Berend botje is voor je geschreven door gitaartabs

Tabs & Chords van Kinderliedjes - Berend botje

Bij de ProTabs delen we niet alleen de tablatuur maar ook de speelwijze van Berend botje Met een beetje gitaar ervaring moet je dit gitaarliedje zeker kunnen spelen, maar als het niet lukt zijn we er altijd om je te helpen. Door een gratis account aan te maken krijg je niet alleen toegang tot deze tab ,akkoorden & tabs van Berend botje maar kun je ook onbeperkt meespelen met een van de meer dan 25.000 andere tabs & chords in onze database.

Plaats opmerking

Verstuur

Beoordeel deze song

Rate UsDon’t love itNot greatGoodGreatLove itRate Us

Bedankt voor je beoordeling! 

Downloads