Beg for me

Gitaarliedjes, tabs & akkoorden (chords) Beg for me - korn

Songtype: Tab

arrow&v

Markeer als favoriet

Favoriet

Gemarkeerd als favoriet

Capo:

0

korn

korn

Song
Album
Categorie

Beg for me

Downloads
700
Niveau
2
issues

Geplaatst door
gitaartabs
ProTabs-promo.jpg

Intro:
d|--------------|
a|--------------|
F|--0--0---0--0-|
C|-6--6---6--6--|
G|--------------|
D|--------------|
A|--------------|

Refrein:
d|--------------------------|-------------------------|
a|--------------------------|-------------------------|
F|--------------------------|-------------------------|
C|--------------------------|-------------------------|
G|----6--6---6---6---6------|----6--6---6---6---6-----|
D|--------------------------|-------------------------|
A|-3---3---3---3---3---3///7|-3---3---3---3---3---3h4-|

Couplet:
d|--------------|
a|--------------|
F|--0--0---0--0-|
C|-6--6---6--6--|
G|--------------|
D|--------------|
A|--------------|

Refrein:
d|--------------------------|-------------------------|
a|--------------------------|-------------------------|
F|--------------------------|-------------------------|
C|--------------------------|-------------------------|
G|----6--6---6---6---6------|----6--6---6---6---6-----|
D|--------------------------|-------------------------|
A|-3---3---3---3---3---3///7|-3---3---3---3---3---3h4-|


d|--------------------------|-------------------------|
a|--------------------------|-------------------------|
F|--------------------------|-------------------------|
C|--------------------------|-------------------------|
G|----6--6---6---6---6------|----6--6---6---6---6-----|
D|--------------------------|-------------------------|
A|-3---3---3---3---3---3///7|-3---3---3---3---3---3---|

Brug:
d|-----------------|-------------------|
a|-----------------|-------------------|
F|-----------------|-------------------|
C|-----4-2-----5-2-|-------4-2-----5-2-|
G|-2---4-2-5---5-2-|-2/3---4-2-5---5-2-|
D|-2---2-0-5---3-0-|-2/3---2-0-5---3-0-|
A|-0-------3-------|-0-0-------3-------|


Outro:
d|------------15--------------18----|
a|---------16--------------16-------|
F|------17--------------17----------|
C|--x---------------x---------------|
G|--3---------------3---------------|
D|--3---------------3---------------|
A|--1---------------1---------------|

Tekst:
Everyone is looking at me.
I can't get out of bed.
There is evil in my head.
Everyone just let me be.
Because when I hit the stage.
It is gone and I am free.
Goddam you say you'll get up for me.
You're the crowd, come on give it back to me.
You won't beg for me, beg for me, beg for me.

Goddam you say you'll get up with me.
You're the crowd, come on give it back to me.
You won't beg for me, be there for me, beg for
me.

Tell me, how could this fade?
I am going in shame.
And I could not have my pain.
Everyone please let me be.
'Cause we're on stage.
And it's gone and I am free.

Goddam you say you'll get up with me.
You're the crowd, come on give it back to me.
You won't beg for me, beg for me, beg for me.

Goddam you say you'll get up with me.
You're the crowd, come on give it back to me.
You won't beg for me, be there for me, beg for
me.

I feel the shame.
I'm not insane.
The things I feel now.
Arent the same.
Who gives a fuck..
If my life sucks?
I just know one day.
I won't give up.

Everyone just let me be.

Goddam you say you'll get up with me.
You're the crowd, come on give it back to me.
You won't beg for me, beg for me, beg for me.

Goddam you say you'll get up with me.
You're the crowd, come on give it back to me.
You won't beg for me, be there for me, beg for
me.

Be there, for me.

ProTabs promo.jpg

Onbeperkt en gratis toegang tot alle 25.000
Tabs & Chords en direct meespelen met

Artiest Liedje

...

Gitaarakkoorden korn - Beg for me

Dankzij de bladmuziek op deze pagina wordt het een stuk makkelijker om met de gitaar mee te spelen met Beg for me van korn De ProTabs van Gitaartabs worden door onze professionele gitaardocenten samengesteld. De tabs en chords zijn door leden zelf geplaatst. Deze undefined van korn met Beg for me is voor je geschreven door gitaartabs

Tabs & Chords van korn - Beg for me

Bij de ProTabs delen we niet alleen de tablatuur maar ook de speelwijze van Beg for me Met een beetje gitaar ervaring moet je dit gitaarliedje zeker kunnen spelen, maar als het niet lukt zijn we er altijd om je te helpen. Door een gratis account aan te maken krijg je niet alleen toegang tot deze tab ,akkoorden & tabs van Beg for me maar kun je ook onbeperkt meespelen met een van de meer dan 25.000 andere tabs & chords in onze database.

Plaats opmerking

Verstuur

Beoordeel deze song

Rate UsDon’t love itNot greatGoodGreatLove itRate Us

Bedankt voor je beoordeling!